Resounding

eric is a real boy

Resounding

Postby eric is a real boy » Sat Feb 28, 2009 4:29 pm

anyone want to take a shot at tabbing?

uiop21
Posts: 16
Joined: Fri Aug 22, 2008 4:15 am

Re: resounding

Postby uiop21 » Wed Mar 18, 2009 10:17 pm

Code: Select all

Intro:

Clean Guitar:

|-3~-----------|
|-----3~-------|
|---------0~---|
|--------------|
|--------------|
|--------------|

Distorted Guitar:

|-----------------------|
|-----------------------|
|-121212~-11~-12~-11~---|
|- x-x-x---x--x--x------|
|-101010~--9~-10~--9~---|
|-----------------------|

I'm pretty sure thats the only guitar, but the piano is playing this:


|-------------------------|
|-------------------------|
|--------------------5~---|
|-5~-----5~--4~--2~--5~---|
|-5~-----5~--5~--2~--3~---|
|-3~-----3~--2~--0~-------|


Verse:

Lead Line!:

|--------------------------------|
|-12s10-xx-10s8-xx-8s7-x-8-x-10--|
|--------------------------------|
|--------------------------------|
|--------------------------------|
|--------------------------------|

|---------------------------------|
|-12s10-xx-10s8-xx-8s7-x-8*-x-10*-|
|---------------------------------|
|---------------------------------|
|---------------------------------|
|---------------------------------|

* = pinch harmonic

Piano:

|---------------------|
|---------------------|
|----------------5----|
|-5----4----2----5----|
|-5----5----2----3----|
|-3----2----0---------|


Pre-Chorus:

Piano:

|----------------|
|----------------|
|------7~---5~---|
|-2~---7~---5~---|
|-2~---5~---3~---|
|-0~-------------|


Chorus:

|--------------------|
|--------------------|
|-7-----7-----7------|
|-5 x8--5 x4--7 x4---|
|-3-----7-----5------|
|--------------------|


Post Chorus/2nd Verse:

|---------------------------------------------------|
|---------------------------------------------------|
|---------------------------------------------------|
|--------------------------------------5---4s5h7----|
|-----5----5-----5----5-----2----2--33---3----------|
|-333---33---222---22---000---00--------------------|


Pre-Chorus:

Same

Chorus:

Same


Thats all I really wanna do right now.  Sorry, I'll get the bridge soon.

resounding
Posts: 4
Joined: Tue Jun 22, 2010 4:56 pm

Re: Resounding

Postby resounding » Tue Jun 22, 2010 4:59 pm

Please I'm begging you guys can someone finish this? I'm awful at guitar but I've learnt a lot from this site and I'd love to be able to play this (just made this account to beg for this)
I'd love if someone could tab/finish tabbing this hopefully more for an acoustic guitar though (still can't afford an electric)

User avatar
Norgan
Posts: 237
Joined: Wed Aug 26, 2009 10:30 pm
Location: Baltimore, MD
Contact:

Re: Resounding

Postby Norgan » Tue Jun 22, 2010 10:06 pm

I'm almost done tabbing out a lite version of the song for you. It's made for acoustic, like you asked. I'm not taking the time to tab out all of the instruments and guitar licks. You can play along to the song with this, and if you're singing along with the tabs it is easily recognizable. I think it's close to what you're looking for. Anyway, I might have it finished and on here later tonight or tomorrow afternoon.
Norgan is a real boy!

User avatar
Norgan
Posts: 237
Joined: Wed Aug 26, 2009 10:30 pm
Location: Baltimore, MD
Contact:

Re: Resounding

Postby Norgan » Wed Jun 23, 2010 4:35 pm

Here you go. Lite acoustic tabs. Didn't tab out any strumming pattern; just feel it out.

Code: Select all

Intro

(0:00)
e|-3~--------3------|-3~--3~--3~--3~---|
B|-3~----------3-0--|-3~--3~--3~--3~---|
G|-0~---------------|-0~--2~--0~--0~---|
D|-0~---------------|-0~--0~--2~--2~---|
A|-2~---------------|-2~--0~--2~--3~---|
E|-3~---------------|-3~--2~--0~-------|



Verse

(0:12)
   If I could take... song for you...
e|-3-------3--------|-3-------3--------|
B|-3-------3--------|-3-------3--------|
G|-0-------2--------|-0-------0--------|
D|-0-------0--------|-2-------2--------|
A|-2-------0--------|-2-------3--------|
E|-3-------2--------|-0----------------|

(0:24)
   If the chords...   wipe your tears...
e|-3-------3--------|-3-------3---2----|
B|-3-------3--------|-3-------3---3----|
G|-0-------2--------|-0-------0---2----|
D|-0-------0--------|-2-------2---0----|
A|-2-------0--------|-2-------3---0----|
E|-3-------2--------|-0----------------|



Pre-chorus

(0:36)
   Always been...     mountain scaled...
e|-3~--2~--3~-------|-3~--2~--3~----x--|
B|-3~--3~--3~-------|-3~--3~--3~----x--|
G|-0~--2~--0~-------|-0~--2~--0~----x--|
D|-2~--0~--2~-------|-2~--0~--2~----x--|
A|-2~--0~--3~-------|-2~--0~--3~----x--|
E|-0~---------------|-0~------------x--|



Chorus

(0:48)
   And every singl... I never want to...
e|-3-------0---2----|-3-------0---2----|
B|-3-------3---3----|-3-------3---3----|
G|-0-------0---2----|-0-------0---2----|
D|-2-------2---0----|-2-------2---0----|
A|-3-------2---0----|-3-------2---0----|
E|---------0--------|---------0--------|

(0:59)
   A tear rolls...            I'm falling...
e|-3-------0---2----|-3-------2~-------|
B|-3-------3---3----|-3-------3~-------|
G|-0-------0---2----|-0-------2~-------|
D|-2-------2---0----|-2-------0~-------|
A|-3-------2---0----|-3-------0~-------|
E|---------0--------|------------------|



Bridge

(1:10)
                     Lets go!
e|-3---3---3---3----|-3---3---3---3----|
B|-3---3---3---3----|-3---3---3---3----|
G|-0---2---0---0----|-0---2---0---0----|
D|-0---0---2---2----|-0---0---2---2----|
A|-2---0---2---3----|-2---0---2---3----|
E|-3---2---0--------|-3---2---0--------|


Repeat Verse (1:22)

Repeat Pre-chorus (1:46)

Repeat Chorus (1:57)



Interlude

(2:18)
               I'm falling down...
e|-x-3~----3---2----|-x-3~----3---2----|
B|-x-3~----3---3----|-x-3~----3---3----|
G|-x-0~----0---2----|-x-0~----0---2----|
D|-x-0~----2---0----|-x-0~----2---0----|
A|-x-3~----2---0----|-x-3~----2---0----|
E|-x-------0--------|-x-------0--------|

(2:28)
     Yeah!
e|-x-3~----3---2----|-x-3~----2--------|
B|-x-3~----3---3----|-x-3~----3--------|
G|-x-0~----0---2----|-x-0~----2--------|
D|-x-0~----2---0----|-x-0~----0--------|
A|-x-3~----2---0----|-x-3~----0--------|
E|-x-------0--------|-x----------------|


(2:38)
 ...stay  forever and...    togther come...
e|-3-------3---3----|-3-------3---3----|
B|-3-------3---3----|-3-------3---3----|
G|-0-------0---2----|-0-------0---2----|
D|-2-------0---0----|-2-------0---0----|
A|-3-------2---0----|-3-------2---0----|
E|---------3---2----|---------3---2----|

(2:48)
 ...may   if only I...      thinking baby...
e|-3-------3---3----|-3-------2--------|
B|-3-------3---3----|-3-------3--------|
G|-0-------0---2----|-0-------2--------|
D|-2-------0---0----|-2-------0--------|
A|-3-------2---0----|-3-------0--------|
E|---------3---2----|------------------|


Repeat Chorus (2:57)

Repeat Chorus (3:18)


Outro

(3:39)
                      Loved you...
e|-3---3---3---3----|-3---3---3---3----|
B|-3---3---3---3----|-3---3---3---3----|
G|-0---2---0---0----|-0---2---0---0----|
D|-0---0---2---2----|-0---0---2---2----|
A|-2---0---2---3----|-2---0---2---3----|
E|-3---2---0--------|-3---2---0--------|

(3:51)
  Loved you
e|-3---3---3---3----|-3---3---3---3----|
B|-3---3---3---3----|-3---3---3---3----|
G|-0---2---0---0----|-0---2---0---0----|
D|-0---0---2---2----|-0---0---2---2----|
A|-2---0---2---3----|-2---0---2---3----|
E|-3---2---0--------|-3---2---0--------|

(4:02)
e|-3----------------|
B|-3----------------|
G|-0----------------|
D|-0----------------|
A|-2----------------|
E|-3----------------|
Norgan is a real boy!

resounding
Posts: 4
Joined: Tue Jun 22, 2010 4:56 pm

Re: Resounding

Postby resounding » Tue Jul 13, 2010 5:28 am

[quote="Norgan"]Here you go. Lite acoustic tabs. Didn't tab out any strumming pattern; just feel it out.

Hey thanks man, sorry for the late reply I figured I'd recieve an email when someone posted in the thread or something :oops:
great stuff!


Return to “Baseball”

Who is online

Users browsing this forum: No registered users and 1 guest