Showdown At P-Town

Post Reply
Alastors
Posts: 2
Joined: Tue Apr 14, 2009 2:06 pm

Showdown At P-Town

Post by Alastors » Tue Apr 14, 2009 2:07 pm

Always wanted to play this song anyone have any of the parts?

User avatar
Scott
Legend
Posts: 540
Joined: Sat Aug 02, 2008 11:33 am
Location: Maryland
Contact:

Re: Showdown At P-Town

Post by Scott » Wed May 06, 2009 1:02 pm

here's what I got so far you'll have t post it into notepad. verse and chorus.

Code: Select all

intro / verse 
								 pm.......
|----------------------------------------------------------------------------------------| 
|----------------------------------------------------------------------------------------| 
|-9-10-------9----9-10-7--------7---7-9-10----------10----10------10-10-10-10-10---8-----| 
|---------10---10--------9----9---9--------12----12----12----12---10-10-10-10-10--10-----| 
|------10------------------10-----------------12-------------------8--8--8--8--8---8-----| 
|----------------------------------------------------------------------------------------| 


|---------------------------------------------------------| 
|---------------------------------------------------------| 
|--9---7--10--10------------------------------------------| 
|-10---9--12--10------------------------------------------| 
|-10--10--12---8------------------------------------------| 
|--8-----(10)---------------------------------------------| 


chorus 

|---------------------------------------------------------| 
|---------------------------------------------------------| 
|----5-------9-14--------5-10-9-7-5-7---------------------| 
|-3--5-/-5---x--x-----3--5--x-x-x-x-x---------------------| 
|-3--3-/-5---7-12-----3--3--8-7-5-3-5---------------------| 
|-1-----/3------------1-----------------------------------| 
Self-inflicted or not, I find myself on the farthest star, foreign to everything like I woke up with a German tongue.

User avatar
Barry Egan
Posts: 95
Joined: Mon Aug 04, 2008 2:09 pm
Contact:

Re: Showdown At P-Town

Post by Barry Egan » Tue May 12, 2009 9:55 pm

Ending is

Code: Select all

|----------------------------
|----------------------------
|-5--4--4--4--------------------
|-5--5--5--5--2-------------------
|-3--2--0-----3-----------------
|----------3--1---------------
Pick around with that and then strum after.
Image

Post Reply