Colorblind

Post Reply
User avatar
the futile
Posts: 63
Joined: Sun Aug 10, 2008 7:56 pm

Colorblind

Post by the futile » Mon Aug 11, 2008 12:58 am

Code: Select all

INTRO/VERSE 
E|------------------------------------------------------------
B|------------------------------------------------------------
G|-------------------------------(5-6~~~~p5h6~~p5///2~~~~~~~5)
D|--6-6-6-6-6-6-6-5-6-6-6-5-5-5-5-5-6-6-6-6-6-6-6-5-6-6-6-6-5-   
A|--8-8-8-8-8-8-8-6-4-4-4-4-4-4-4-6-8-8-8-8-8-8-8-6-4-4-4-4-4-
E|------------------------------------------------------------

(here comes the sadness...)
E|------------------------------------------------------------
B|------------------------------------------------------------
G|-(6~~)------------------------------------------------------
D|--6-6-6-6-6-6-6-5-6-6-6-6-5-5-5-5-6-6-6-6-6-6-6-5-6-6-6-6-5-
A|--8-8-8-8-8-8-8-6-4-4-4-4-4-4-4-6-8-8-8-8-8-8-8-6-4-4-4-4-4-
E|------------------------------------------------------------

2nd GUITAR (sit down for supper...)
E|------------------------------------------------------------
B|------------------------------------------------------------
G|--13------------12-13-----------16-17-------------12-13-----
D|--xx------------xx-xx-----------xx-xx-------------xx-xx-----
A|--11------------10-11-----------14-15-------------10-11-----
E|------------------------------------------------------------

2nd continued...
E|------------------------------------------------------------
B|------------------------------------------------------------
G|--xx17------------16-17---------13-12~~~~~~~~~~~~~13-------x
D|--xxxx------------xx-xx---------xx-xx-------------xx-------x
A|--xx15------------14-15---------11-10~~~~~~~~~~~~~11-------x
E|------------------------------------------------------------


CHORUS (and i move too slow...)
E|------------------------------------------------------------
B|------------------------------------------------------------
G|--6-6-xx--------3-3-xx--------6-6-xx--------8-8-8-8-8-8-8-8-
D|--6-6-xx-6-6-xx-3-3-xx-3-3-xx-6-6-xx-6-6-xx-8-8-8-8-8-8-8-8-    Repeat
A|--4-4-xx-6-6-xx-1-1-xx-3-3-xx-4-4-xx-6-6-xx-6-6-6-6-6-6-6-6-
E|---------4-4-xx--------1-1-xx--------4-4-xx-----------------


(the jist of the) 2nd VERSE 
E|-----------------------------------------------
B|-----------------------------------------------
G|--xx10-10-10-8xx6-5-5-8xx10-10-10-8xx6-5-5-8---
D|--xx10-10-10-8xx6-6-6-8xx10-10-10-8xx6-6-6-8---
A|--xx8--8--8--6xx4-4-4-6xx8--8--8--6xx4-4-4-6---
E|-----------------------------------------------

E|------------------------------------------------------------
B|------------------------------------------------------------
G|--xx10-10-10-8xx6-5-5-8xx10-10-10-8xx6-5-5-5-5555555566668--
D|--xx10-10-10-8xx6-6-6-8xx10-10-10-8xx6-6-6-6-5555555566668--
A|--xx8--8--8--6xx4-4-4-6xx8--8--8--6xx4-4-4-4-3333333344446--
E|------------------------------------------------------------


REPEAT CHORUS


SOLO
E|--9-9-8886-4-4-4h666--9-9-8886-4-4-4h666--99998888666644446666888899991111111111111111-   <-- those are elevens
B|---------------------------------------------------------------------------------------
G|---------------------------------------------------------------------------------------
D|---------------------------------------------------------------------------------------
A|---------------------------------------------------------------------------------------
E|---------------------------------------------------------------------------------------

E|-------------------------------------------------------
B|-------------------------------------------------------
G|--6-6-5553-1-1-1h33--6-5-3p1-1--1-33-55-66-33-55-66-88-
D|-------------------------------------------------------
A|-------------------------------------------------------
E|-------------------------------------------------------


CHORUS after solo
E|-----------------------------------------------------------------------------
B|--(9999999999999999)-------(9999)-------(9999)-(9999)-(99998888999911111111)-   <-- elevens
G|-------------------6-6-----------------------6-6-----------8-8-8-8-8-8-8-8---
D|-------------------6-6----------6-6----------6-6----6-6----8-8-8-8-8-8-8-8---
A|-------------------4-4----------6-6----------4-4----6-6----6-6-6-6-6-6-6-6---
E|--------------------------------4-4-----------------4-4----------------------


OUTRO
E|----------------------------------------------------------------------
B|----------------------------------------------------------------------
G|--15-/-13---15-/-13---15-/-13---15-/-13---12---18xx17xx15xx17xx13~~~~~
D|--xx-/-xx---xx-/-xx---xx-/-xx---xx-/-xx---xx---xxxxxxxxxxxxxxxx13~~~~~
A|--13-/-11---13-/-11---13-/-11---13-/-11---10---16xx15xx13xx15xx11~~~~~
E|----------------------------------------------------------------------

You've got to go with the motion, oh
Can you feel it in your bones?

stalk_on
Posts: 4
Joined: Mon May 17, 2010 2:15 pm

Re: Colorblind

Post by stalk_on » Mon May 17, 2010 2:31 pm

This, along with others posted by "the futile," was tabbed by me about 5 years ago, for my now-defunct SA site, "Stalk On."

Conversely, Steve_O gave credit on my Signal the Rifleman tab. Appreciated.

User avatar
the futile
Posts: 63
Joined: Sun Aug 10, 2008 7:56 pm

Re: Colorblind

Post by the futile » Mon May 17, 2010 10:17 pm

i'm glad you said that, i was looking for stalk_on to give recognition where it's due.
well done and thank you.
You've got to go with the motion, oh
Can you feel it in your bones?

Post Reply