Into The Night

User avatar
steveo
Legend
Posts: 89
Joined: Sat Aug 02, 2008 4:46 pm

Into The Night

Postby steveo » Sat Aug 02, 2008 5:12 pm

Code: Select all

Say Anything
"Into The Night"
Rhythm tabbed by: KingMontmorency
Solo and Other Guitars by: Josie


rhythm, 2nd guitar hits the "(5)" during verse
e-------------------------------------------------------------------
b-----------5-(5)------------------------------------------------------
g---------6--6-------5----------------------------------------------
d-------6------6---6--6---a buncha times ending on----------4-------
a-----4-----------6-----6-----------------------------------4-------
e----------------4------------------------------------------2-------

then:

palm mute the beginning and do ur own rythm
e-------------------------------------------
b-------------------------------------------
g-------------------------------------------
d---6--8--9----9-8-7-6----6--8--9-----------
a---4--6--7----7-6-5-4----4--6--7-----------
e-------------------------------------------

*organ plays* before the PM chords start*
                 then the \/guitar\/
|-------------------------------------------|
|-*5--5-4--5--5-4-5---4*---5-----5----------|
|----------------------------6--------------|
|------------------------------6------------|
|-------------------------------------------|
|-------------------------------------------|

i saw a tear on a rose and i ripped it off for you
e-----------------------------------------------
b-----------------------------------------------
g----6-6-6--------9-9-9-4-----6-6-6-------------
d----6-6-6-6-6-6-9-9-9-4-4--6-6-6---------------
a----4-4-4-6-6-6-7-7-7-2-4--4-4-4---------------
e-----------4-4-4-----------2-------------------

you as i gag on my guts cus im watching u give up. . .
e-------------------------------------------
b-------------------------------------------
g----6-6-6--9-8--------9-8--9-9-9-4----6----
d----6-6-6--7-6-6-6-6-7-6--9-9-9-4-4-6------
a----4-4-4-------6-6-6------7-7-7-2-4-4-----
e-----------------4-4-4----------------2----


|-----4-4/5-4--2-0-----------------------------------------|
|-4-5--------------4-4--2-0-2-4-4-4h5--5-5/7--5-4-4/5-4-2~-|
|----------------------------------------------------------|
|----------------------------------------------------------|
|----------------------------------------------------------|
|----------------------------------------------------------|

2:39-2:47, after "lips smacking away into the night"
|------------------------|
|------------------------|
|-11-9-8-6-4-6-4-2/4-2-1-|
|------------------------|
|------------------------|
|------------------------|

end lead part
|-5-4-------4-5-4---------|
|-----5-4-5-------5-4h5p4-|
|-------------------------|
|-------------------------|
|-------------------------|
|-------------------------|
Image
Oh, I'll be around to pick your pretty heart right off the ground when all this
fucking fashion brings you down.
http://www.purevolume.com/stevearuilioistheman

tgreg
Posts: 75
Joined: Wed Mar 10, 2010 4:58 pm

Re: Into The Night

Postby tgreg » Fri Sep 03, 2010 4:29 pm

Couldnt you tune a half step down and play with the d chord and a chord, seems like it'd be a little easier. :?:


Return to “Baseball”

Who is online

Users browsing this forum: No registered users and 1 guest