Slumming it with Johnny

User avatar
Scott
Site Admin
Posts: 540
Joined: Sat Aug 02, 2008 11:33 am
Location: Maryland
Contact:

Slumming it with Johnny

Postby Scott » Sun Aug 03, 2008 10:47 pm

Code: Select all

Say Anything
"Slumming It With Johnny"
Tabbed By: Adrian Amador

All Guitars in Standard Turning.

 Verse
    Q=119
    N.C.
   4/4                                 2/4
    Gtrs I, II
                                             4x
||--------------------------|---------|------||
||o-------------------------|---------|-----o||
||--------------------------|---------|------||
||-----9--(9)--9--(9)--9----|---------|------||
||o-7-(7)--7--(7)-----------|---------|-----o||
||-----------------9--(9)---|---------|------||


  N.C.                   E5/B
 4/4
  Gtr I
|--------------------------|----------------------|
|--------------------------|----------------------|
|------------------------9-|-9---9-(9)------------|
|----9--(9)--9--(9)--9---9-|-9---9-11-------------|
|-7-(7)--7--(7)------------|----------------------|
|----------------9--(9)----|------------7--9-(9)--|
|
| Gtr II
|--------------------------|----------------------|
|--------------------------|----------------------|
|--------------------------|----------------------|
|----9--(9)--9--(9)--9-----|------------------9---|
|-7-(7)--7--(7)------------|------------9-11------|
|----------------9--(9)----|----------------------|


  N.C.                              B5/F#       E5/B
|-----------------------------|----------------------|
|-----------------------------|----------------------|
|-----------------------------|----------------------|
|----9--(9)--9--(9)--9---9-11-|-9---9-(9)------------|
|-7-(7)--7--(7)---------------|-----9-11--------(7)--|
|----------------9--(9)-------|------------7--9--7---|
|
|-----------------------------|----------------------|
|-----------------------------|----------------------|
|-----------------------------|----------------------|
|----9--(9)--9--(9)--9--------|------------------9---|
|-7-(7)--7--(7)---------------|------------9-11------|
|----------------9--(9)-------|----------------------|


  N.C.                   E5/B          B5/F#       E5/B
|------------------------------|------------------------|
|------------------------------|------------------------|
|------------------------9-(9)-|-(9)--------------------|
|----9--(9)--9--(9)--9---9-11--|--9----9-(9)------------|
|-7-(7)--7--(7)----------------|-------9-11--------(7)--|
|----------------9--(9)--------|--------------7--9--7---|
|
|------------------------------|------------------------|
|------------------------------|------------------------|
|------------------------------|-------9----------------|
|----9--(9)--9--(9)--9---------|-------9------------9---|
|-7-(7)--7--(7)----------------|--------------9-11------|
|----------------9--(9)--------|------------------------|


  N.C.                            G/D
                                  Gtr III
|-------------------------|------------|
|-------------------------|--------0---|
|-------------------------|--------0---|
|----9--(9)--9--(9)--9----|--------0---|
|-7-(7)--7--(7)-----------|------------|
|----------------9--(9)---|------------|
|
|                                 Gtr IV
|-------------------------|------------|
|-------------------------|-------<5>--|
|-------------------------|-------<5>--|
|----9--(9)--9--(9)--9----|-------<5>--|
|-7-(7)--7--(7)-----------|-------<5>--|
|----------------9--(9)---|------------|


 Pre-Chorus
  N.C.
|-----------------|-----------------|-----------------|------------------|
|-----------------|-----------------|-----------------|------------------|
|-----------------|-----------------|-----------------|------------------|
|-----------------|-----------------|-----------------|------------------|
|-7-7-7-7-7-7-7-7-|-7-7-7-7-7-7-7-7-|-7-7-7-7-7-7-7-7-|-7-7-7-7-7-7-7-7--|
|-----------------|-----------------|-----------------|------------------|
|
|-----------------|-----------------|-----------------|------------------|
|-----------------|-----------------|-----------------|------------------|
|-----------------|-----------------|-----------------|------------------|
|-----------------|-----------------|-6-6-6-6-6-6-6-6-|-6-6-6-6-6-6-6-6--|
|-----------------|-----------------|-----------------|------------------|
|-----------------|-----------------|-----------------|------------------|


 Chorus
  E                               E5/Eb
|-------------------------------|---------------------------------|
|-------------------------------|---------------------------------|
|-------------------------------|---------------------------------|
|-6--6---6---6---6---6---6---6--|--8---8---8---8---8---8---8---8--|
|-7--7---7---7---7---7---7---7--|--7---7---7---7---7---7---7---7--|
|-0-(0)-(0)-(0)-(0)-(0)-(0)-(0)-|-(0)-(0)-(0)-(0)-(0)-(0)-(0)-(0)-|
|
|-------------------------------|---------------------------------|
|-------------------------------|-11------------------------------|
|-9-----------------------------|---------------------------------|
|-6-----------------------------|--8------------------------------|
|-7-----------------------------|--7------------------------------|
|-0-----------------------------|-(0)-----------------------------|


  A5/E                              E
|---------------------------------|----------------------------------|
|---------------------------------|----------------------------------|
|---------------------------------|----------------------------------|
|--7---7---7---7---7---7---7---7--|--6---6---6---6---6---6---6---6---|
|--7---7---7---7---7---7---7---7--|--7---7---7---7---7---7---7---7---|
|-(0)-(0)-(0)-(0)-(0)-(0)-(0)-(0)-|-(0)-(0)-(0)-(0)-(0)-(0)-(0)-(0)--|
|
|---------------------------------|----------------------------------|
|-10------------------------------|--9-------------------------------|
|---------------------------------|----------------------------------|
|--7------------------------------|--6-------------------------------|
|--7------------------------------|--7-------------------------------|
|-(0)-----------------------------|-(0)------------------------------|


  E                               E5/Eb
|-------------------------------|---------------------------------|
|-------------------------------|---------------------------------|
|-------------------------------|---------------------------------|
|-6--6---6---6---6---6---6---6--|--8---8---8---8---8---8---8---8--|
|-7--7---7---7---7---7---7---7--|--7---7---7---7---7---7---7---7--|
|-0-(0)-(0)-(0)-(0)-(0)-(0)-(0)-|-(0)-(0)-(0)-(0)-(0)-(0)-(0)-(0)-|
|
|-------------------------------|---------------------------------|
|-------------------------------|-11--11--11--11--11--11--11--11--|
|-9--9---9---9---9---9---9---9--|---------------------------------|
|-6--6---6---6---6---6---6---6--|--8---8---8---8---8---8---8---8--|
|-7--7---7---7---7---7---7---7--|--7---7---7---7---7---7---7---7--|
|-0-(0)-(0)-(0)-(0)-(0)-(0)-(0)-|-(0)-(0)-(0)-(0)-(0)-(0)-(0)-(0)-|


  A5/E                              E
|---------------------------------|---------------------------------|
|---------------------------------|---------------------------------|
|---------------------------------|---------------------------------|
|--7---7---7---7---7---7---7---7--|--6---6---6---6---6--x-x-x-x-x-x-|
|--7---7---7---7---7---7---7---7--|--7---7---7---7---7--x-x-x-x-x-x-|
|-(0)-(0)-(0)-(0)-(0)-(0)-(0)-(0)-|-(0)-(0)-(0)-(0)-(0)-x-x-x-x-x-x-|
|
|---------------------------------|---------------------------------|
|-10--10--10--10--10--10--10--10--|--9---9---9---9---9--------------|
|---------------------------------|---------------------------------|
|--7---7---7---7---7---7---7---7--|--6---6---6---6---6--x-x-x-x-x-x-|
|--7---7---7---7---7---7---7---7--|--7---7---7---7---7--x-x-x-x-x-x-|
|-(0)-(0)-(0)-(0)-(0)-(0)-(0)-(0)-|-(0)-(0)-(0)-(0)-(0)-x-x-x-x-x-x-|


 Verse
  N.C.
|-------------------------------|-------------------|
|-------------------------------|---9-9-------9---9-|
|-----------------------9-9-9-9-|-9-----9-9-9---9---|
|----9--(9)--9--(9)--9----------|-------------------|
|-7-(7)--7--(7)-----------------|-------------------|
|----------------9--(9)---------|-------------------|
|
|-------------------------------|-------------------|
|-------------------------------|-------------9---9-|
|-------------------------------|-----------9---9---|
|----9--(9)--9--(9)--9----------|-------------------|
|-7-(7)--7--(7)-----------------|-------------------|
|----------------9--(9)---------|-------------------|


  N.C.                       E       N.C. E     N.C. E     N.C. E     N.C.
|----------------------------------|-----------------------------------------|
|----------------------------9-(9)-|------9-(9)------9-(9)------9-(9)--------|
|----------------------------9-11--|------9-11-------9-11-------9-11--9-11-9-|
|----9--(9)--9--(9)--9--9-11-------|-9-11-------9-11-------9-11--------------|
|-7-(7)--7--(7)--------------------|-----------------------------------------|
|----------------9--(9)------------|-----------------------------------------|
|
|----------------------------------|-----------------------------------------|
|----------------------------------|-----------------9-(9)------9-(9)--------|
|----------------------------------|------9-11-------9-11-------9-11--9-11-9-|
|----9--(9)--9--(9)--9-------------|-9-11-------9-11-------9-11--------------|
|-7-(7)--7--(7)--------------------|-----------------------------------------|
|----------------9--(9)------------|-----------------------------------------|


  N.C.                              E   N.C.  E N.E.
|-------------------------------|-------------------|
|-------------------------------|-----9---------9---|
|-------------------------------|---9---------9---9-|
|----9--(9)--9--(9)--9--9-9-9-9-|-9-----9-9-9-------|
|-7-(7)--7--(7)-----------------|-------------------|
|----------------9--(9)---------|-------------------|
|
|-------------------------------|-------------------|
|-------------------------------|---9-9-------9---9-|
|-------------------------------|---9-9-------9---9-|
|----9--(9)--9--(9)--9----------|-------------------|
|-7-(7)--7--(7)-----------------|-------------------|
|----------------9--(9)---------|-------------------|


  N.C.                                             E     N.C.
|---------------------------------|---------------------------------------|
|---------------------------------|---------------------------------------|
|----------------------------9-11-|------9-11------9-11-------9-11-9-11-9-|
|----9--(9)--9--(9)--9--9-11------|-9-11------9-11-------9-11-------------|
|-7-(7)--7--(7)-------------------|---------------------------------------|
|----------------9--(9)-----------|---------------------------------------|
|
|---------------------------------|---------------------------------------|
|---------------------------------|----------------9-(9)------------------|
|----------------------------9-11-|------9-11------9-11-------9-11-9-11-9-|
|----9--(9)--9--(9)--9--9-11------|-9-11------9-11-------9-11-------------|
|-7-(7)--7--(7)-------------------|---------------------------------------|
|----------------9--(9)-----------|---------------------------------------|


  N.C.
  Gtrs III, IV
                        TP   TP  TP  TP  TP
|--------------------------|----------------|
|--------------------------|----------------|
|-----------------------8--|-9--11--13--14--|
|----9--(9)--9--(9)--9-----|----------------|
|-7-(7)--7--(7)---------6--|-7---9--11--12--|
|----------------9--(9)----|----------------|


                         TP    TP  TP TP TP
|---------------------------|---------------|
|---------------------------|---------------|
|-----------------------14--|-13--11--9--8--|
|----9--(9)--9--(9)--9------|---------------|
|-7-(7)--7--(7)---------12--|-11---9--7--6--|
|----------------9--(9)-----|---------------|


  N.C.
|-------------------------------|-----------------------------------------|
|-------------------------------|-----------------------------------------|
|-----------------------8-8-x-x-|-9-9-x-x-11-11-x-13-13-13-x-14-14-14-x-x-|
|----9--(9)--9--(9)--9------x-x-|-----x-x-------x----------x----------x-x-|
|-7-(7)--7--(7)---------6-6-x-x-|-7-7-x-x--9--9-x-11-11-11-x-12-12-12-x-x-|
|----------------9--(9)---------|-----------------------------------------|


  N.C.                  Bsus2/C#    N.A5   E
|---------------------------|----------------|
|-----------------------0-0-|-0-0-0----------|
|---------------------------|----------------|
|----9--(9)--9--(9)--9--9-9-|-9-9-9---7-7--6-|
|-7-(7)--7--(7)-------------|---------7-7----|
|----------------9--(9)-9-9-|-9-9-9-0-5-5--0-|


 Chorus
  E     EsN.E.  N.C.    E EsEs2
|-------------------|---------------------|
|-------------------|---------------------|
|-------------------|---------------------|
|-(6)-6-------------|-------6-(6)-(6)-x-6-|
|-------9---7-7-----|---7-9-----------x---|
|-(0)-0-0-0-0-0-9-7-|-9-0-0-0-(0)-(0)-x-0-|


        EsN.E.  N.C.    E EsEs2         E
|-------------------|----------------------|
|-------------------|----------------------|
|-------------------|----------------------|
|-(6)-6-------------|-----------------x-6--|
|-------9---7-7-----|---7-9-7-(7)-(7)-x----|
|-(0)-0-0-0-0-0-9-7-|-9-0-0-0-(0)-(0)-x-0--|


  E     EsusE EsN.C.    E EsEs2
|-------------------|---------------------|
|-------------------|---------------------|
|-------------------|---------------------|
|-(6)-6-----6-------|-------6-(6)-(6)-x-6-|
|-------9-9---9-----|---7-9-----------x---|
|-(0)-0-0-0-0-0-9-7-|-9-0-0-0-(0)-(0)-x-0-|


        EsN.E.  N.C.    E EsEs2
|-------------------|--------------------------|
|-------------------|--------------------------|
|-------------------|--------------------------|
|-(6)-6-------------|--------------------------|
|-------9---7-7-----|---7-9-7-(7)-(7)-(7)-(7)--|
|-(0)-0-0-0-0-0-9-7-|-9-0-0-0-(0)-(0)-(0)-(0)--|


                       Bridge
  E                     N.C.
              2/4      4/4                       5/4
                        Gtr I
|------------|--------|-------------------------|---------------|
|------------|--------|-------------------------|---------------|
|------------|--------|-------------------------|---------------|
|------------|--------|----9--(9)--9--(9)--9----|---------------|
|-(7)--------|-(7)----|-7-(7)--7--(7)-----------|---------------|
|-(0)--------|-(0)----|----------------9--(9)---|---------------|
|
| Gtr IV                Gtr II
|------------|--------|-------------------------|---------------|
|------------|--------|-------------------------|---------------|
|------------|--------|-------------------------|---------------|
|------------|--------|----9--(9)--9--(9)--9----|---------------|
|-(7)--------|-(7)----|-7-(7)--7--(7)-----------|---------(7)---|
|-(0)--------|-(0)----|----------------9--(9)---|---------------|


  N.C.
 4/4
|-------------------------|
|-------------------------|
|-------------------------|
|----9--(9)--9--(9)--9----|
|-7-(7)--7--(7)-----------|
|----------------9--(9)---|
|
|-------------------------|
|-------------------------|
|-------------------------|
|----9--(9)--9--(9)--9----|
|-7-(7)--7--(7)-----------|
|----------------9--(9)---|


     E/B                                            N.C.
 7/4
|--------------------------------------------------------|
|--------------------------------------------------------|
|--------------------------------------------------------|
|--------------------------------------------------------|
|---------------------------------------------------(7)--|
|--------------------------------------------------------|
|
|------------9-------------------------------------------|
|-----9---9--9--9--9-----9--9--9--9--9--9--9---(9)-------|
|-----9---9--9--9--9--9--9--9--9--9--9--9--9---(9)-------|
|----(9)-11-11-11-11-11-11-11-11-11-11-11-11--(11)-------|
|--------------------------------------------------------|
|--------------------------------------------------------|


  N.C.                        Bm            N.C.
 4/4                       6/4
|-------------------------|---------------------|
|-------------------------|---------------------|
|-------------------------|---------------------|
|----9--(9)--9--(9)--9----|---------------------|
|-7-(7)--7--(7)-----------|---------------------|
|----------------9--(9)---|---------------------|
|
|-------------------------|---^7--------(7)-----|
|-------------------------|---^7--------(7)-----|
|-------------------------|---^7--------(7)-----|
|----9--(9)--9--(9)--9----|---^9--------(9)-----|
|-7-(7)--7--(7)-----------|-----------------(7)-|
|----------------9--(9)---|---------------------|


  N.C.
 4/4
|-------------------------|-----|
|-------------------------|-----|
|-------------------------|-----|
|-------------------------|-----|
|-------------------------|-----|
|-------------------------|-----|
|
|-------------------------|-----|
|-------------------------|-----|
|-------------------------|-----|
|----9--(9)--9--(9)--9----|-----|
|-7-(7)--7--(7)-----------|-----|
|----------------9--(9)---|-----|


 Verse
  N.C.                         E5/B       E5/B
|-------------------------|-------------|-------------------------|-----|
|-------------------------|-------------|-------------------------|-----|
|-------------------------|-------------|-------------------------|-----|
|----9--(9)--9--(9)--9----|-------------|----9--(9)--9--(9)--9----|-----|
|-7-(7)--7--(7)-----------|-------------|-7-(7)--7--(7)-----------|-----|
|----------------9--(9)---|-------------|----------------9--(9)---|-----|
|
|-------------------------|-------------|-------------------------|-----|
|-------------------------|-------------|-------------------------|-----|
|-------------------------|----9----(9)-|-9------9-------9--------|-----|
|-------------------------|----9----(9)-|-9--9---9---9---9---9----|-----|
|-------------------------|-------------|-------------------------|-----|
|-------------------------|-------------|-------------------------|-----|


  E5N.C.                             C#m/EN.C.
|-------------------------|-------------|-------------------------|-----|
|-------------------------|-------------|-------------------------|-----|
|-------------------------|-------------|-------------------------|-----|
|----9--(9)--9--(9)--9----|-------------|----9--(9)--9--(9)--9----|-----|
|-7-(7)--7--(7)-----------|-------------|-7-(7)--7--(7)-----------|-----|
|----------------9--(9)---|-------------|----------------9--(9)---|-----|
|
|-------------------------|------x-x-9--|-------------------------|-----|
|-------------------------|------x-x-9--|-------------------------|-----|
|-9------9-------9--------|------x-x-9--|-9------9-------9--------|-----|
|-9--9-------9-------9----|-------------|----9-------9-------9----|-----|
|-------------------------|-------------|-------------------------|-----|
|-------------------------|-------------|-------------------------|-----|


  N.C.
|--------------------------|-----------------------|
|--------------------------|-----------------------|
|-----------------------9--|--x-9-9-9-9-(9)b10r(9)-|
|----9--(9)--9--(9)--9-----|-----------------------|
|-7-(7)--7--(7)------------|-----------------------|
|----------------9--(9)----|-----------------------|
|
|--------------------------|-----------------------|
|--------------------------|-----------------------|
|-9------9-------9---------|-----------------------|
|----9-------9-------9-----|-----------------------|
|--------------------------|-----------------------|
|--------------------------|-----------------------|


|-------------------------|----------------------|
|-------------------------|----------------------|
|-------------------------|----------------------|
|----9--(9)--9--(9)--9----|--9-9-9-9-9-(9)b9.5---|
|-7-(7)--7--(7)-----------|----------------------|
|----------------9--(9)---|----------------------|
|
|-------------------------|----------------------|
|-------------------------|----------------------|
|-9------9-------9--------|----------------------|
|----9-------9-------9----|----------------------|
|-------------------------|----------------------|
|-------------------------|----------------------|


  N.C.                                                            E5
                                                                  Gtrs III, IV
|--------------------------|-------------|---------------|--------0-|
|--------------------------|-------------|---------------|--------0-|
|-----------------------9--|--9-9-9-9-9--|-9---9---9-----|----------|
|----9--(9)--9--(9)--9-----|-------------|---------------|--------9-|
|-7-(7)--7--(7)------------|-------------|---7---7-------|--------7-|
|----------------9--(9)----|-------------|-----------9---|----------|
|
|--------------------------|-------------|---------------|----------|
|--------------------------|-------------|---------------|----------|
|--------------------------|--9-9-9-9-9--|---------------|----------|
|----9--(9)--9--(9)--9-----|-------------|-9---9---9-----|----------|
|-7-(7)--7--(7)------------|-------------|---7---7-------|----------|
|----------------9--(9)----|-------------|-----------9---|----------|


 Chorus
  E5    C#m7/FC#5   E/C#    G#5 E5E5/A    N.C.E5/B
|-(0)-0--0--0---------0---|-----0-(0)-(0)-------|
|-(0)-0--0--0---------0---|-----0-(0)-(0)-------|
|-------------------------|---------------------|
|-(9)-9-11-11-------------|-------------------9-|
|-(7)-7--9--9-11-11-(11)--|-6-6----7---7------7-|
|--------------9--9--(9)--|-4-4----5---5--0-0-7-|


  E5/B  F#7susC#5#  E5/B G#5 E5E5/A    B5  E5/B
|--------0--0-------0--|-----0-(0)-(0)-------|
|--------0--0-------0--|-----0-(0)-(0)-------|
|----------------------|---------------------|
|-(9)-9-11-11----------|-------------------9-|
|-(7)-7--9--9-11-11----|-6-6----7---7--9-9-7-|
|-(7)-7--9--9--9--9----|-4-4----5---5--7-7-7-|


  E5/B  F#7susC#5#  E5/B G#5 E5E5/A    N.C.E5/B
|--------0--0-------0--|-----0-(0)-(0)-------|
|--------0--0-------0--|-----0-(0)-(0)-------|
|----------------------|---------------------|
|-(9)-9-11-11----------|-------------------9-|
|-(7)-7--9--9-11-11----|-6-6----7---7------7-|
|-(7)-7--9--9--9--9----|-4-4----5---5--0-0-7-|


  E5/B  F#7susC#5#  E5/B G#5 E5E5/A
|--------0--0-------0--|-----0-(0)-(0)-----------|
|--------0--0-------0--|-----0-(0)-(0)-----------|
|----------------------|-------------------------|
|-(9)-9-11-11----------|-----------------x-x-x-x-|
|-(7)-7--9--9-11-11----|-6-6----7---7--7-x-x-x-x-|
|-(7)-7--9--9--9--9----|-4-4----5---5--5-x-x-x-x-|


  C#5   E5/BG#5 E5/B  A5   E5/B
|-------0-0-----0-0-|------0-(0)-0-0-0-0-|
|-------0-0-----0-0-|------0-(0)-0-0-0-0-|
|-------------------|--------------------|
|-------------------|------9-(9)-9-9-9-9-|
|-11-11-----6-6-----|-7-7--7-(7)-7-7-7-7-|
|--9--9-----4-4-----|-5-5--7-(7)-7-7-7-7-|


  E/C#  E5/BG#5 E5/B  A5   E5/B
|-------0-0-----0-0-|------0-(0)-0---------|
|-------0-0-----0-0-|------0-(0)-0---------|
|--9--9-------------|----------------------|
|--9--9-------------|------9-(9)-9-x-x-x-x-|
|-11-11-----6-6-----|-7-7--7-(7)-7-x-x-x-x-|
|--9--9-----4-4-----|-5-5--7-(7)-7-x-x-x-x-|


  E/C#  E5/BG#5 E5/B  A5   E5/B            E/C#  E5/BG#5 E5/B  A5   E5/B
|-------0-0-----0-0-|------0-(0)-0-0-0-0-|-------0-0-----0-0-|------0----(0)-|
|-------0-0-----0-0-|------0-(0)-0-0-0-0-|-------0-0-----0-0-|------0----(0)-|
|--9--9-------------|--------------------|--9--9-------------|---------------|
|--9--9-------------|------9-(9)-9-9-9-9-|--9--9-------------|------9----(9)-|
|-11-11-----6-6-----|-7-7--7-(7)-7-7-7-7-|-11-11-----6-6-----|-7-7--7----(7)-|
|--9--9-----4-4-----|-5-5--7-(7)-7-7-7-7-|--9--9-----4-4-----|-5-5--7----(7)-|


 Outro
  N.C.
|---------------|-----*|
|---------------|-----*|
|---------------|-----*|
|-9---9---9-----|-----*|
|---7---7-------|-----*|
|-----------9---|-----*|



Tablature Legend
----------------
 h   - hammer-on
 p   - pull-off
 b   - bend
 pb  - pre-bend
 r   - bend release (if no number after the r, then release immediately)
 /\  - slide into or out of (from/to "nowhere")
 s   - legato slide
 S   - shift slide
&lt;n&gt; - natural harmonic
[n]  - artificial harmonic
n(n) - tapped harmonic
 ~   - vibrato
 tr  - trill
 T   - tap
 TP  - trem. picking
 PM  - palm muting
\n/  - tremolo bar dip; n = amount to dip
 \n  - tremolo bar down
 n/  - tremolo bar up
/n\  - tremolo bar inverted dip
 =   - hold bend; also acts as connecting device for hammers/pulls
 &lt;&gt; - volume swell (louder/softer)
 x   - on rhythm slash represents muted slash
 o   - on rhythm slash represents single note slash

Misc Legend
-----------
 |  - bar
||  - double bar
||o - repeat start
o|| - repeat end
*|  - double bar (ending)
 :  - bar (freetime)
 $  - Segno
 &  - Coda
Self-inflicted or not, I find myself on the farthest star, foreign to everything like I woke up with a German tongue.

User avatar
Scott
Site Admin
Posts: 540
Joined: Sat Aug 02, 2008 11:33 am
Location: Maryland
Contact:

Re: Slumming it with Johnny

Postby Scott » Sun Aug 03, 2008 10:51 pm

Self-inflicted or not, I find myself on the farthest star, foreign to everything like I woke up with a German tongue.


Return to “For Sale EP”

Who is online

Users browsing this forum: No registered users and 1 guest