We Will Erase All Life on Earth But Us

Post Reply
User avatar
steveo
Legend
Posts: 89
Joined: Sat Aug 02, 2008 4:46 pm

We Will Erase All Life on Earth But Us

Post by steveo » Sat Aug 02, 2008 5:18 pm

Code: Select all

Say Anything
""
Tabbed by: Danny


Intro/Verse 
             Starts off with distortion strumming the E chord 
       E              
e|-----------------0-----------------0-------------------------------------| 
B|-----------------0-----------------0-------------------------------------| 
G|---1-------------1----8-8-9-9------1---------8-8-11-9------------------| 
D|---2-------------2----9-9-9-9------2---------9-9-9--9-------------------| 
A|---2-------------2----x------------2---------x---------------------------| 
E|----------------------x----------------------x---------------------------| 

e|---0------------------------------------------------------------| 
B|---0------------------------------------------------------------| 
G|---1------8-8-9-9---------------------------4-4/6/4--------------------| 
D|---2------9-9-9-9----------6----2-2--7-7----4-4/6/4---------------------| 
A|---2-----------------------6----2-2--7-7----2-2/4/2---------------------| 
E|---------------------------4----0-0--5-5-------------------------| 
                                  
e|---0------------------------------------------------------------| 
B|---0------------------------------------------------------------| 
G|---1-----8-8--9-9----1-----8-8-11--9--------------------------------------| 
D|---2-----9-9--9-9----1-----9-9-9---9------------------------------------| 
A|---2-----------------2-----------------------------------------| 
E|---------------------------------------------------------------| 
    
e|---------------------------------------------------------------| 
B|---------------------------------------------------------------| 
G|---6---------2--------7---------4---------4/6/4-----------------------| 
D|---6--(x3)---2--(x3)--7--(x3)---4--(x3)---4/6/4----------------------| 
A|---4---------0--------5---------2---------2/4/2-----------------------| 
E|---------------------------------------------------------------| 

Pre-Chorus (Clean Guitar) 
0:59-1:15 
"Spit it from your mouth like a foreign object" 

(im not sure about this part, but here's what i play, it sounds fine just for playing along. in the recording the guitar is quite faint in this part, so...) 
e|---------------2-----(alternate with pinky) 2-2-2-0-2-2-0-2-4-2-0---| 
B|---------------0-----------------------------------------------------------| 
G|--[strum]------1-----------------------------------------------------------| 
D|---------------2-----------------------------------------------------------| 
A|---------------2-----------------------------------------------------------| 
E|---------------------------------------------------------------------------| 

        (end the strumming with...) 
e|--------------2-------------------------------------------------| 
B|--------0-------0------------------------------------------------| 
G|-----1----1-------1-----------------------------------------------| 
D|---------------------------------------------------------------| 
A|---------------------------------------------------------------| 
E|---------------------------------------------------------------| 


Chorus (Distortion) 
1:15-1:30 
"Spit it from your mouth......why do you injest it?) 
(figure out strumming) 
e|---------------------------------------------------------------| 
B|---------------------------------------------------------------| 
G|---------------------------------------------------------------| 
D|-------6---7----1-------------------------------------------------| 
A|-------6---7----1-------------------------------------------------| 
E|-------4---5----2-------------------------------------------------| 

Solo 
2:31-2:50 
(play around with this) 

e|---------------------------------------------------------------| 
B|---------------------------------------------------------------| 
G|---------------------------------------------------------------| 
D|------9h11------------------9h11----------------------------| 
A|------------7--7-7-7-777--------9h11---7-7-777-----------| 
E|---------------------------------------------------------------| 

e|---------------------------------------------------------------| 
B|---------------------------------------------------------------| 
G|---------------------------------------------------------------| 
D|------9h11-9h11------------9---------9h11-----------------| 
A|--------------------7---9h11-----9h11-----------------------| 
E|---------------------------------------------------------------| 

e|---------------------------------------------------------------| 
B|---------------------------------------------------------------| 
G|---------------------------------------------------------------| 
D|------9h11------------------9---11-9----------------------| 
A|-------------9h11-7--9h11-----------11-9-7(hold then slide down neck)  
E|--------------------------------------------------------------| 

Bridge/End (Clean Guitar) 
2:51-End 
"We will erase all life on earth..." 

e|---0-------------9-----------------------------------------------| 
B|---0----5--4----10--9-----------------------------------------------| 
G|---6----6--4----9---9-----------------------------------------------| 
D|---7----6--4----11--9------------------------------------------------| 
A|---7----4--2----9---7-----------------------------------------------| 
E|---5------------------------------------------------------------| 

little solo fill in Bridge/End 
(not very accurate, just a guide at it) 
e|---------------------------------------------------------------| 
B|-----12-12-12-12/14/12--12-12-12-12/14/12-------------| 
G|---------------------------------------------------------------| 
D|---------------------------------------------------------------| 
A|---------------------------------------------------------------| 
E|---------------------------------------------------------------| 

e|----------------------------12-11----------------------------------| 
B|----12-12-12-12/14/12----------14-12 ---------------------------| 
G|-------------------------------------------------(x2)--------------| 
D|---------------------------------------------------------------| 
A|---------------------------------------------------------------| 
E|---------------------------------------------------------------| 

e|------------------------------12--14-------------------------| 
B|------12-12-12-12/14/12-----------------------------------| 
G|---------------------------------------------------------------| 
D|---------------------------------------------------------------| 
A|---------------------------------------------------------------| 
E|---------------------------------------------------------------| 

End on 

e|---------------------------------------------------------------| 
B|---------------------------------------------------------------| 
G|----1-----------------------------------------------------------| 
D|----1-----------------------------------------------------------| 
A|----2-----------------------------------------------------------| 
E|---------------------------------------------------------------| 
Image
Oh, I'll be around to pick your pretty heart right off the ground when all this
fucking fashion brings you down.
http://www.purevolume.com/stevearuilioistheman

Post Reply