A Walk Through Hell

For tabs of songs found on compilations...
User avatar
steveo
Moderator
Posts: 89
Joined: Sat Aug 02, 2008 4:46 pm

A Walk Through Hell

Postby steveo » Sun Aug 03, 2008 1:06 am

A Walk Through Hell New Alt. Press Version

Code: Select all

   
And if I could swim....


e|------------------------------------------------------------------------------|
B|------------------------------------------------------------------------------|
G|------6-6------6-6------6-6------6-6------6-6------6-6-------6-6-6-7-6--6-7-6-|    x2
D|------7-7------7-7------7-7------7-7------7-7------7-7-------7-7-7-7-7--7-7-7-|
A|-------------------9-9------9-9------7-7------7-7-------5-5------5-5-5--5-5-5-|
E|-5-5------5-5-----------------------------------------------------------------|


So they chose you....

e|------------------------------------------------------------------------------|
B|------------------------------------------------------------------------------|
G|------------------------------------------------------------------------------|    x2
D|-----7---7-----7---7-----7---7------------------------------------------------|
A|-5-5---7---4-4---7---------7-----------4h7------------------------------------|
E|---------------------7-7-------5-5-5h7----------------------------------------|

And they hunt you...
                  |guess|
e|----------------|
B|-----------5----|
G|----------------|
D|-7-7--7-7--7----|
A|-5-5--4-4-------|
E|-----------7----|


But if I was brave...

Guitar 1
e|------------------------------------------------------------------------------|
B|------------------------------------------------------------------------------|
G|------6-6------6-6------6-6------6-6------6-6------6-6-------6-6-6-7-6--6-7-6-|    x2
D|------7-7------7-7------7-7------7-7------7-7------7-7-------7-7-7-7-7--7-7-7-|
A|-------------------9-9------9-9------7-7------7-7-------5-5------5-5-5--5-5-5-|
E|-5-5------5-5-----------------------------------------------------------------|

Guitar 2

e|-5---5---5---5---5---5---7---7----9----9----9----9----9----9----9----9----|
B|---5---5---5---5---7---7---9---9----10---10---10---10---10---10---10---10-|

e|-4---4---4---4---4---7---7---5---5---5---5---5---5---5---5---|
B|---5---5---5---5---5---5---5---7---7---7---7---7---7---7---7-|

x2

And I stand there..

Guitar 1
e|------------------------------------------------------------------------------|
B|------------------------------------------------------------------------------|
G|------------------------------------------------------------------------------|    x2
D|-----7---7-----7---7-----7---7------------------------------------------------|
A|-5-5---7---4-4---7---------7-----------4h7------------------------------------|
E|---------------------7-7-------5-5-5h7----------------------------------------|

Guitar 2

e|----------------------------5-4-------|
B|-----5-------5------5-----------7-5---|  x2
G|-6-7----6-7-----6-7----6-7----------7-|


And I'd hold you...
                  |guess|
e|----------------|
B|-----------5----|
G|----------------|
D|-7-7--7-7--7----|
A|-5-5--4-4-------|
E|-----------7----|

Guitar 2
e|----------------|
B|-----5-------5--|
G|-6-7----6-7-----|



e|-x-x-|
B|-x-x-|
G|-x-x-|
D|-x-x-|
A|-x-x-|
E|-x-x-|

I'd walk...

            |---you can let the top 2 strings ring----|
e|---------------------------------------------------------0--0---2--2---------------|
B|---------------------------------------------------------0--0---2--2---------------|
G|-9---9--9-9-9-9-9--9---9--9-9-9-9-9-9-9-9--9--9--9--9----7--7---2--2---9-----------|
D|-7---7--7-7-7-7-7--6---6--7-7-7-7-9-9-9-9-11-11-11-11----7--7---2--2---6-----------|
A|-5---5--5-5-5-5-9--7---7--7-7-7-7-7-7-7-7----------------5--5---4--4---7-----------|
E|-5---5--5-5-5-5----0---0--0-0-0-0-0-0-0-0--0--0--0--0-----------2--2---0-----------|


|---you can let the top 2 strings ring----|
e|-----------------------------------|
B|-----------------------------------|
G|----9--9-9-9-9-9-9-9-9--9--9--9--9-|
D|----6--7-7-7-7-9-9-9-9-11-11-11-11-|
A|----7--7-7-7-7-7-7-7-7-------------|
E|----0--0-0-0-0-0-0-0-0--0--0--0--0-|

x2

No vocals:

Guitar 1
e|------------------------------------------------------------------------------|
B|------------------------------------------------------------------------------|
G|------------------------------------------------------------------------------|    x2
D|-----7---7-----7---7-----7---7------------------------------------------------|
A|-5-5---7---4-4---7---------7-----------4h7------------------------------------|
E|---------------------7-7-------5-5-5h7----------------------------------------|

e|------------------------------------------------------------------------------|
B|------------------------------------------------------------------------------|
G|-------------------------------6----------------------------------------------|   
D|-----7---7-----7---7-----7---7-7----------------------------------------------|
A|-5-5---7---4-4---7---------7--------------------------------------------------|
E|---------------------7-7-------5----------------------------------------------|

Guitar 2

e|------------------------------------------------------------------------------|
B|-----5-------------------------5----------------------------------------------|
G|-6-7---/6-/6p4-------------6-7---/6-/6p4------------/6~-4---------------------|
D|---------------7-4/2-/4-7----------------7-4/2-/4p2-------7-------------------|
A|------------------------------------------------------------------------------|
E|------------------------------------------------------------------------------|

And if they send....
             |--other guitars play this distorted-|
e|------------------------------------------------------------------------------|
B|------------------------------------------------------------------------------|
G|------------------------------------------------------------------------------|    x2
D|-----7---7-----7---7-----7---7------------------------------------------------|
A|-5-5---7---4-4---7---------7-----------4h7------------------------------------|
E|---------------------7-7-------5-5-5h7----------------------------------------|

And then hold you...
                  |guess|
e|----------------|
B|-----------5----|
G|----------------|
D|-7-7--7-7--7----|
A|-5-5--4-4-------|
E|-----------7----|

I'd walk...

            |---you can let the top 2 strings ring----|
e|---------------------------------------------------------0--0---2--2---------------|
B|---------------------------------------------------------0--0---2--2---------------|
G|-9---9--9-9-9-9-9--9---9--9-9-9-9-9-9-9-9--9--9--9--9----7--7---2--2---9-----------|
D|-7---7--7-7-7-7-7--6---6--7-7-7-7-9-9-9-9-11-11-11-11----7--7---2--2---6-----------|
A|-5---5--5-5-5-5-9--7---7--7-7-7-7-7-7-7-7----------------5--5---4--4---7-----------|
E|-5---5--5-5-5-5----0---0--0-0-0-0-0-0-0-0--0--0--0--0-----------2--2---0-----------|

|---you can let the top 2 strings ring----|
e|-----------------------------------|
B|-----------------------------------|
G|----9--9-9-9-9-9-9-9-9--9--9--9--9-|
D|----6--7-7-7-7-9-9-9-9-11-11-11-11-|
A|----7--7-7-7-7-7-7-7-7-------------|
E|----0--0-0-0-0-0-0-0-0--0--0--0--0-|

(repeat as needed listen for strumming changes)

So i've walked...

            |---you can let the top 2 strings ring----|
e|---------------------------------------------------------0--0---2--2-----------|
B|---------------------------------------------------------0--0---2--2-----------|
G|-9---9--9-9-9-9-9--9---9--9-9-9-9-9-9-9-9--9--9--9--9----7--7---2--2-----------|
D|-7---7--7-7-7-7-7--6---6--7-7-7-7-9-9-9-9-11-11-11-11----7--7---2--2-----------|
A|-5---5--5-5-5-5-9--7---7--7-7-7-7-7-7-7-7----------------5--5---4--4-----------|
E|-5---5--5-5-5-5----0---0--0-0-0-0-0-0-0-0--0--0--0--0-----------2--2-----------|


e|---------------------|
B|---------------------|
G|-------------6h7-9-9-|
D|-6---7---9---------7-|
A|---7---7---7-------5-|
E|-------------------5-|
Image
Oh, I'll be around to pick your pretty heart right off the ground when all this
fucking fashion brings you down.
http://www.purevolume.com/stevearuilioistheman

User avatar
Scott
Site Admin
Posts: 540
Joined: Sat Aug 02, 2008 11:33 am
Location: Maryland
Contact:

Re: A Walk Through Hell

Postby Scott » Mon Aug 04, 2008 1:51 pm













Self-inflicted or not, I find myself on the farthest star, foreign to everything like I woke up with a German tongue.

User avatar
What Say You
Posts: 15
Joined: Thu Aug 07, 2008 10:18 pm
Location: Caro, MI
Contact:

Re: A Walk Through Hell

Postby What Say You » Sun Aug 10, 2008 9:28 am

Image

"Milk Was a Bad Choice"

wherethehurtis
Posts: 2
Joined: Sat Sep 20, 2008 4:20 pm

Re: A Walk Through Hell

Postby wherethehurtis » Mon Sep 22, 2008 8:05 pm

I agree with 99% of the tab, but this is how I think the intro should be played first:

Code: Select all

e|------------------------------------------------------------------------------------------------|
B|------------------------------------------------------------------------------------------------|
G|------6-6------6-6------6-6------6-6------6-6------6-6-------6-6-----------------------|
D|------7-7------7-7------7-7------7-7------7-7------7-7-------7-7----------------7/----|
A|-------------------9-9------9-9------7-7------7-7-------5-5---------5-5----7h9---------|
E|-5-5------5-5----------------------------------------------------------------------------------|


You slide down for the final note.


Return to “Compilations”

Who is online

Users browsing this forum: No registered users and 1 guest