She Got Away

User avatar
the futile
Posts: 63
Joined: Sun Aug 10, 2008 7:56 pm

She Got Away

Postby the futile » Sun Aug 10, 2008 11:02 pm

Code: Select all

E|--------------|--------------|--------------|--------------|
B|--------------|--------------|--------------|--------------|
G|--------------|--------------|--------------|--------------|Repeat
D|---1----2-1---|---1----2-1---|---1----2-1---|3/4-2-1-2-1---|  x4
A|-2---2------2-|-----2------2-|-----2------2-|------------2-|
e|--------------|-4------------|-2------------|--------------|
You've got to go with the motion, oh
Can you feel it in your bones?

luke
Posts: 11
Joined: Sun Aug 10, 2008 10:59 pm

She Got Away (Whole thing)

Postby luke » Sun Aug 10, 2008 11:40 pm

Code: Select all

SHE GOT AWAY (Junior Varsity!, 2000)

Intro:
e|----------------------------------------------------
B|----------------------------------------------------
G|----------------------------------------------------
D|---1---2---1---1-2----1---1-2-1--4-2-1-2-1----
A|--2--2---2----2----2----2---2----------------2--
E|-------------4---------2---------------------------

Rhythm (triplets):
e|----------------------------------------
B|----------------------------------------
G|--44444444--------------------------
D|--44444444-66666666-44444444--
A|--22222222-66666666-44444444--
E|--------------44444444-22222222--

Lead (Cued to chord changes):
e|----------------------------
B|----------------------------
G|--4-4--4-----------------4-4--
D|--4-4--4-6-6--6-4-4--4-4-4--
A|--2-2--2-6-6--6-4-4--4-2-2--
E|----------4-4--4-2-2--2------

Chorus (normal strumming):
e|--------------------------------
B|--------------------------------
G|--------------------------------
D|--99999999-66666666-44444444/9--
A|--99999999-66666666-44444444/9--
E|--77777777-44444444-22222222/7--

Intro Variation (Right before bridge):
e|-------------------------------------------------------
B|-------------------------------------------------------
G|------------------------------------------------------
D|----1---2---1--1-2---1--1--2-1--4-2-1-1h2p1-1--
A|--2---2-------2---2----2--2-----2-------------------
E|------------4---------2-------------------------------

Bridge:
e|------------------------------------------
B|------------------------------------------
G|--4~---------4------------------------------
D|--4~-6~-4~-4--99999999-66666666-44444444--
A|--2~-6~-4~-2--99999999-66666666-44444444--
E|------4~-2~----77777777-44444444-22222222--
PM                    ....................................

End On
e|----------
B|----------
G|--444~--
D|--444~--
A|--222~--
E|----------


Easy song, have fun.


Return to “Junior Varsity”

Who is online

Users browsing this forum: No registered users and 1 guest