Do Better

uiop21
Posts: 16
Joined: Fri Aug 22, 2008 4:15 am

Do Better

Postby uiop21 » Sat Nov 28, 2009 2:52 am

Alright, here we go, I know everyone wants to play it.

Code: Select all


Do Better - Say Anything


For pretty much the whole song:

Intro:

|------------------------------
|-----9----------6-------------
|------------------------5-----
|-------10-----6---6-----------
|---8--------4---------6---6---
|--------------------4---------


---------------------------------
----------------6----------9-----
-------5-------------------------  Then, repeat
--------------6---6-----10---10--
-----6---6--4---------8----------
---4-----------------------------


Thats the whole song


If you wanna know the second violins part:

|-----------|
|-----------|
|--8--5--8--|
|--x--x--x--|  on the  "simple as a hint of gas" part
|--6--3--6--|
|-----------|


|--------------------|
|-4-4-4-4-4-4-4-4-4--|
|-6-6-6-6-6-6-6-6-6--|  basically just repeating that
|-6-6-6-6-6-6-6-6-6--|  for the "your life is always
|--------------------|  the post of something else" part
|--------------------|



There are pretty much only 3 chords used in the whole song:

G#  C# and Fm



Now... for the solo...  I'll get to that soon enough
Probably one of my favorite solos of all time.

User avatar
the futile
Posts: 63
Joined: Sun Aug 10, 2008 7:56 pm

Re: Do Better

Postby the futile » Wed Jan 20, 2010 8:09 pm

Code: Select all

e|---------------------------------------------------------------------------|
B|-------------------------------------------8--------9----------------------|
G|--------5----------5-----------5-------------------------------5-----------|
D|----------6----------6-------6---6-------6----6--------6-----6---6---------|
A|------6--------------------4-----------8-----------8-------4---------------|
E|---4-------------4---------------------------------------------------------|
  "Life is not a spark in space..."

e|---------------------------------------------------------------------------|
B|---------------------8-----------------8--9--------------------------------|
G|----5--8-5-8-----8----------5--8-5-8---------------------------------------|
D|----6--6-6-6-----6---6------6--6-6-6---6--6--------------------------------|
A|----4--4-4-4-----8---8------4--4-4-4---8--8--------------------------------|
E|---------------------------------------------------------------------------|
  "Simple as a hint of gas climbing nostrils as you pass..."

e|---------------------------------------------------------------------------|
B|---------------------------------------------------------------------------|
G|---------------------------------------------------------------------------|
D|---3-----11-----6-----4----------------------------------------------------|
A|---3-----11-----6-----4----------------------------------------------------|
E|---1-----9------4-----6----------------------------------------------------|
  "You could do better, better than that, you're a fraud..."

e|---------------------------------------------------------------------------|
B|---------------------------------------------------------------------------|
G|---------------------------------------------------------------------------|
D|---6--------3---------11---------------------------------------------------|
A|---6--------3---------11---------------------------------------------------|
E|---4--------1---------9----------------------------------------------------|
  "You'd burn so brightly in the dark"

not too sure about the "you could do better..." and afterwards

You've got to go with the motion, oh
Can you feel it in your bones?

Jeffanything
Posts: 21
Joined: Tue Oct 12, 2010 3:19 pm

Re: Do Better

Postby Jeffanything » Thu Oct 14, 2010 8:25 pm

This tuning is E# G# C# F# G# D#

User avatar
steveo
Legend
Posts: 89
Joined: Sat Aug 02, 2008 4:46 pm

Re: Do Better

Postby steveo » Wed Oct 27, 2010 1:30 am

Jeffanything wrote:This tuning is E# G# C# F# G# D#


You sure?
Image
Oh, I'll be around to pick your pretty heart right off the ground when all this
fucking fashion brings you down.
http://www.purevolume.com/stevearuilioistheman


Return to “Say Anything”

Who is online

Users browsing this forum: No registered users and 1 guest