I Used To Have A Heart

MAH0019
Posts: 1
Joined: Wed Sep 10, 2008 7:30 pm

I Used To Have A Heart

Postby MAH0019 » Wed Sep 10, 2008 7:31 pm

Does anyone have a tab for this song? I have a bad musical ear, I love this song, and I really want to play it!!!

User avatar
Jonah34
Posts: 3
Joined: Sat Dec 27, 2008 8:57 pm

Re: I Used To Have A Heart

Postby Jonah34 » Tue Dec 30, 2008 5:36 pm

Here ya go, took me like a day. idk how good it is, let me know :D

Tuning: Standard

This is just Jakes part. from what i can gather


e|---------------------------------------------------------------------------|
B|---------------------------------------------------------------------------|
G|-------------------------9--13b--------9999-13131313--/9-7--9-13-9-13-9---9999-13131313|
D|---------------------------------7b-7-----------------------------------7b-|
A|---------------------------------------------------------------------------|
E|-12-0-0-0-12-0-0-0---------------------------------------------------------|

e|---------------77777-10101010-------777777-14141414------------------------|
B|------------------------------7h9-9b---------------------------------------|
G|-7h9-9-9-9-----------------------------------------------------------------|
D|---------------------------------------------------------------------------|
A|---------------------------------------------------------------------------|
E|---------------------------------------------------------------------------|

"All i want to do," cant figure this out!!! i need some help



e|---------------------------------------------------------------------------|
B|---9999-7777-5h7p5---------------777-8-7---X3--------------121212-151515---|
G|---------------------------------------------------------------------------|
D|---------------------------------------------------------------------------|
A|---------------------------------------------------------------------------|
E|---------------------------------------------------------------------------|

After this the song virtually starts over, until

e|---------------------------------------------------------------------------|
B|-8-8-10-12-10-9h10p9-7-5-3h5-3h5-3h5-888-----------------------------------|
G|---------------------------------------------------------------------------|
D|---------------------------------------------------------------------------|
A|-----------------------------------------10-12-14-12-10/9-10-9-------------|
E|---------------------------------------------------------------------------|

e|---------------------------------------------------------------------------|
B|---5-3h5-3h5-3h5-888-----------------------5-3h5-3h5-3h5-888-------------------------------------------------|
G|---------------------------------------------------------------------------|
D|---------------------------------------------------------------------------|
A|-----------------------10-12-14-17-14p12------------------------------------------------|
E|---------------------------------------------------------------------------|

e|---------------------------------------------------------------------------|
B|---------------------------------------------------------------------------|
G|---------------------------------------------------------------------------|
D|---------------------------------------------------------------------------|
A|--14-14-10-12-10-12-14/15/14-------------------------------------------------------------------|
E|---------------------------------------------------------------------------|

im also having some difficulties with the ending little solo.. idk its very odd.
I could probably tab it out if i had any fucking clue what they were doing.

end on e|---|
B|---| If anyone could help me, it would be awesome.
G|---|
D|-7-|
A|-7-|
E|-5-|
I don't have no problem with you fucking me, but i do have a problem with you not fucking me.

zackw123
Posts: 4
Joined: Sat May 01, 2010 9:58 pm

Re: I Used To Have A Heart

Postby zackw123 » Sat May 01, 2010 10:01 pm

I'm working on a tab for the intro. I will try to have it posted by tonight if not tomorrow.
-Zack

zackw123
Posts: 4
Joined: Sat May 01, 2010 9:58 pm

Re: I Used To Have A Heart

Postby zackw123 » Sat May 01, 2010 10:36 pm

So I made the tab in guitar pro but it won't let me attach it. Any suggestions? In the mean time if you want the tab, email me at zackw123@yahoo.com and I would be happy to send it to you. I can send it as either a gp5 or a pdf file.
-Zack


Return to “In Defense of the Genre”

Who is online

Users browsing this forum: No registered users and 0 guests