Baby Girl, I'm A Blur

User avatar
steveo
Legend
Posts: 89
Joined: Sat Aug 02, 2008 4:46 pm

Baby Girl, I'm A Blur

Postby steveo » Sun Aug 03, 2008 1:11 am

Max Acoustic Version

Code: Select all

Say Anything
"Baby Girl I'm A Blur" (Acoustic)
Tabbed by Scott Rome

Tuning Eb
Based off of http://youtube.com/watch?v=UvQsE-hBzyc


"Baby girl.."
(and here is me trying to capture max's style)
Eb|---------------------------------|
Bb|---------------------------------|
Gb|---------------0-----------------|
Db|-------0-------0---------------0-|
Ab|-------0-3-3-3-0---------------0-|
Eb|-5-5-5-0---------3-3-3-3-3-3-3-0-|

"Deep in your heart.."
(play the notes besides the bass note lightly.. again with style!)
Eb|-----0-------0---------0-----0---|
Bb|-0---0-0-0---0-0---0---0-0-0-0-0-|
Gb|---------------------------------|
Db|-5-5-5-5-5-5-5-5-5-5-5-5-5-5-5-5-|
Ab|---------3-3-3-3-5-5-5-5-5-5-5-5-|
Eb|-5-5-5-5---------3-3-3-3-3-3-3-3-|

"So take what you want..."
Eb|-----0-------0---------0-----0---|
Bb|-0---0-0-0---0-0---0---0-0-0-0-0-|
Gb|---------5-5-5-5-----------------|
Db|-7-7-7-7-5-5-5-5-5-5-5-5-5-5-5-5-|
Ab|-7-7-7-7-3-3-3-3-5-5-5-5-5-5-5-5-|
Eb|-5-5-5-5---------3-3-3-3-3-3-3-3-|

"You're with me all the time!"
(just chords)
Eb|---------------|
Bb|-5----5---5----|
Gb|-5----5---5----|
Db|------3--------|
Ab|-5-------------|
Eb|----------5----|

"On the roof..."
(and here is me trying to capture max's style)
Eb|---------------------------------|
Bb|---------------------------------|
Gb|---------------0-----------------|
Db|-------0-------0---------------0-|
Ab|-------0-3-3-3-0---------------0-|
Eb|-5-5-5-0---------3-3-3-3-3-3-3-0-|

"And on the roof...
(slightly palm mutted)
Eb|-----0-------0---------0-----0---|
Bb|-0---0-0-0---0-0---0---0-0-0-0-0-|
Gb|---------------------------------|
Db|-5-5-5-5-5-5-5-5-5-5-5-5-5-5-5-5-|
Ab|---------3-3-3-3-5-5-5-5-5-5-5-5-|
Eb|-5-5-5-5---------3-3-3-3-3-3-3-3-|

"So take what you want..."
Eb|-----0-------0---------0-----0---|
Bb|-0---0-0-0---0-0---0---0-0-0-0-0-|
Gb|---------5-5-5-5-----------------|
Db|-7-7-7-7-5-5-5-5-5-5-5-5-5-5-5-5-|
Ab|-7-7-7-7-3-3-3-3-5-5-5-5-5-5-5-5-|
Eb|-5-5-5-5---------3-3-3-3-3-3-3-3-|

"You're with me all the time!"
(just chords)
Eb|---------------|
Bb|-5----5---5----|
Gb|-5----5---5----|
Db|------3--------|
Ab|-5-------------|
Eb|----------5----|

"We fall right down.."
(The second chord in this is a pain for those of us with small hands..)
Eb|----------------------------------------------------------|
Bb|----------------------------------------------------------|
Gb|---5----5--------5----5---------5----5--------------------| 
Db|---2----2--3/2---2----2---------2----2------5-7-----------|
Ab|-----------------3----3--3/5--5-5--5-5----------5-7-3-5-0-|
Eb|-5-5--5-5------1-1--1-1-----------------10\---------------|

Repeat above until after the last "over me" which then you stay
on the following chord until the next part
Eb|----|
Bb|----|
Gb|-5--|
Db|-2--|
Ab|-5--|
Eb|----|

"We're on a sinking ship!"
(He switched the chords he plays but they are all the same chords)
Eb|---------------------------------------------|
Bb|----------------------5-5--5-5---5-----------|
Gb|--5-5--5-5--5-5--5-5--5-5--5-5---5-----------|
Db|--5-5--5-5-------------------------strum-me--|
Ab|------------3-3--3-3--5-5--5-5---5-----------|
Eb|--5-5--5-5--1-1--1-1-------------------------|

Eb|-------------------------------------|
Bb|------------5-5--5-5--5--------------|
Gb|--5-5--5-5--5-5--5-5--5--------------|
Db|--5-5--5-5--3-3--3-3-------strum-me--|
Ab|----------------------5--------------|
Eb|--5-5--5-5---------------------------|

"You're with me all the time!"
Eb|---------------------------------|
Bb|-----5-------5-------5---6---5-3-|
Gb|---5---5---5---5---5---5---5-----|
Db|---------3-----------------------|
Ab|-5-------------------------------|
Eb|-----------------5---------------|

"No matter..."
(just chords)
Eb|-----------------|
Bb|-5----5---5---5--|
Gb|-5----5---5---5--|
Db|------3----------|
Ab|-5------------5--|
Eb|----------5---3--|

Repeat above chord progression and end with
Eb|------------|
Bb|-5--5--5----|
Gb|-5--5--5----|
Db|----3-------|
Ab|-5----------|
Eb|-------5----|
Image
Oh, I'll be around to pick your pretty heart right off the ground when all this
fucking fashion brings you down.
http://www.purevolume.com/stevearuilioistheman

User avatar
the futile
Posts: 63
Joined: Sun Aug 10, 2008 7:56 pm

Re: Baby Girl, I'm A Blur

Postby the futile » Mon Aug 11, 2008 1:46 am

an alternative for the "take all you want.." could be ;



Code: Select all

eb|------------------------------------|               
Bb|------------------------------------|           
Gb|------------------------------------|               
Db|--5555-------5555----555555---------|
Ab|-------------3333----555555---------|           
Eb|--5555-------3333----333333---------|   


and "we fall right down";

Code: Select all

Bridge

eb|--x-------x-------x-----------------|
Bb|--x-------x5--55--x5--55-555555-----|
Gb|--x5--55--x5--55--x5--55-555555-----| x 4
Db|--x2--22--x3--33--x-----------------|
Ab|--x-------x3--33--x5--55-555555-----|
Eb|--x5--55--x-------x-----------------|
You've got to go with the motion, oh
Can you feel it in your bones?

maxpemis
Posts: 31
Joined: Mon Nov 30, 2009 6:30 pm

Re: Baby Girl, I'm A Blur

Postby maxpemis » Wed Dec 09, 2009 3:50 pm

can someone take a shot at tabbing the lead part of the bridge, "we fall right down", played on the cd? thanks

maxpemis
Posts: 31
Joined: Mon Nov 30, 2009 6:30 pm

Re: Baby Girl, I'm A Blur

Postby maxpemis » Tue Jan 26, 2010 8:13 pm

bridge

eb|----------------------------------------------------------------------------------------|
Bb|----------------------------7h8h7----------------------------------------------------|
Gb|-----7h9h7------7h9h7----------7h9h7-----7h9h7-----7h9--------------------|
Db|-99----------99------------------------------99---------99------7h9---------------|
Ab|-------------------------------------------------------------------------7h9-5h7-0--|
Eb|----------------------------------------------------------------------------------------|

eb|--------------------------------------------------------------------------------------------------------------|
Bb|------------------1010/12-------1010/12----------------------------------------------------------------|
Gb|-----7h9h7----------------9h11-------------9h11-7------7799------------------7h9------------------|
Db|-99----------99-------------------------------------------77-------7799-----------------7h9------------|
Ab|----------------------------------------------------------------------------7799-55------------7h9-5h7-|
Eb|--------------------------------------------------------------------------------------------------------------|

User avatar
singingsimon
Posts: 2
Joined: Sun Mar 14, 2010 7:39 am
Location: Singapore

Re: Baby Girl, I'm A Blur

Postby singingsimon » Sun Sep 19, 2010 12:48 pm

I play a version where you don't have to tune your guitar down, and because of this it's in a different key, and also has four open chords
(I'll write the rest of the tab later)

But play every chord like a three fingered bar chord leaving the bottom strings open
Play every chord like this:
(B Chord)
e|--0--|
B|--0--|
G|--4--|
D|--4--|
A|--2--|
E|--0--|

(D Chord)
e|--0--|
B|--0--|
G|--7--|
D|--7--|
A|--5--|
E|--0--|

(A Chord)
e|--0--|
B|--0--|
G|--2--|
D|--2--|
A|--0--|
E|--0--|


Verse 1:
"Baby Girl, I'm..."
B D A A

Pre-Chorus:
"So take what you want..."
B E A A

Chorus:
"You’re with me"
E G B *(B/A)

Verse 2:
"On the roof..."
B D A A

Pre-Chorus

Chorus

Bridge
"We'd fall right down..."
B G E C
"That's how we be..."
B B E A

Outtro Chorus
"You're with me all the time..."
E G B A
"No matter where I go..."
E G B A

*(B/A) = You can play B or A here (Probably B the first time and A the second)


Return to “In Defense of the Genre”

Who is online

Users browsing this forum: No registered users and 0 guests