Spores

User avatar
steveo
Moderator
Posts: 89
Joined: Sat Aug 02, 2008 4:46 pm

Spores

Postby steveo » Sun Aug 03, 2008 1:17 am

Code: Select all

Say Anything
"Spores" (Acoustic)
Tabbed By: Scott Rome

He plays it live with his guitar tuned to Eb as always. My tab is in E like the album version




I was watching...

Main Riff      Part two       Variation
e|-------------------|-X-X--X-X--X-X--X-X-|-X-X-X-------|
B|-------------------|-X-X--X-X--X-X--X-X-|-X-X-X-------|
G|-11b---------------|-X-X--X-X--X-X--X-X-|-X-X-X-11-9--|
D|-11b----11-11-9-11-|-X-X--X-X--X-X--X-X-|-X-X-X-11-9--|
A|--9---9-11-11-9-11-|-X-X--X-X--X-X--X-X-|-X-X-X-------|
E|--9---9--9--9-9--9-|-X-X--X-X--X-X--X-X-|-X-X-X-------|
I got off...

e|-------------------9--9--9--9-|
B|-------------------9--9--9--9-|
G|-------------------9--9--9--9-|
D|-11-11--11-11-11--11-11-11-11-|
A|-11-11--11-11-11--11-11-11-11-|
E|--9--9---9--9--9---9--9--9--9-|



But I...
(Not correct strumming pattern)

e|--0---0--0--|
B|--0---0--0--|
G|--X---X--X--|
D|--9---9--9--|   x a few
A|--7---7--7--|
E|--5---9--7--|

Then you threw me..

Main Riff      Part two       Variation
e|------------------|-X-X--X-X--X-X--X-X-|-X-X-X-------|
B|------------------|-X-X--X-X--X-X--X-X-|-X-X-X-------|
G|-11b--------------|-X-X--X-X--X-X--X-X-|-X-X-X-11-9--|
D|-11b---11-11-9-11-|-X-X--X-X--X-X--X-X-|-X-X-X-11-9--|
A|--9--9-11-11-9-11-|-X-X--X-X--X-X--X-X-|-X-X-X-------|
E|--9--9--9--9-9--9-|-X-X--X-X--X-X--X-X-|-X-X-X-------|

I got off...

e|-------------------9--9--9--9-|
B|-------------------9--9--9--9-|
G|-------------------9--9--9--9-|
D|-11-11--11-11-11--11-11-11-11-|
A|-11-11--11-11-11--11-11-11-11-|
E|--9--9---9--9--9---9--9--9--9-|

But I...
e|--0---0--0--|
B|--0---0--0--|
G|--X---X--X--|
D|--9---9--9--|   x a few
A|--7---7--7--|
E|--5---9--7--|


Instrumental part --> going into "I miss you more tonight"



(Chorus just strummed differently)
e|--0---0--0--|
B|--0---0--0--|
G|--X---X--X--|
D|--9---9--9--|   x a few
A|--7---7--7--|
E|--5---9--7--|

You know I still know...

Main Riff      Part two       Variation
e|-------------------|-X-X--X-X--X-X--X-X-|-X-X-X-------|
B|-------------------|-X-X--X-X--X-X--X-X-|-X-X-X-------|
G|-11b---------------|-X-X--X-X--X-X--X-X-|-X-X-X-11-9--|
D|-11b----11-11-9-11-|-X-X--X-X--X-X--X-X-|-X-X-X-11-9--|
A|--9---9-11-11-9-11-|-X-X--X-X--X-X--X-X-|-X-X-X-------|
E|--9---9--9--9-9--9-|-X-X--X-X--X-X--X-X-|-X-X-X-------|

It's your loss.

e|--0--0---0--0---|
B|--0--0---0--0---|
G|--X--X---X--X---|
D|-11-11--11-11---|
A|-11-11--11-11---|
E|--9--9---9--9---|

End on



e|-12--|
B|-14--|
G|-13--|
D|-11--|
A|-----|
E|-----|
Image
Oh, I'll be around to pick your pretty heart right off the ground when all this
fucking fashion brings you down.
http://www.purevolume.com/stevearuilioistheman

User avatar
Scott
Site Admin
Posts: 540
Joined: Sat Aug 02, 2008 11:33 am
Location: Maryland
Contact:

Re: Spores

Postby Scott » Mon Aug 04, 2008 1:54 pm



the other videos aren't exactly correct because I was lazy at the time.. after seeing max play again live the tab above reflects the corrections... not the videos...





Self-inflicted or not, I find myself on the farthest star, foreign to everything like I woke up with a German tongue.

User avatar
Jonah34
Posts: 3
Joined: Sat Dec 27, 2008 8:57 pm

Re: Spores

Postby Jonah34 » Tue Dec 30, 2008 6:26 pm

I believe this is what Jake plays during "I miss you more tonight"
e|---------------------------------------------------------------------------------------------|
B|---------------------------------------------------------------------------------------------|
G|--11-11-13-11-9-9----------------------------12-14-12-10-9-10-9-7-5-7-3-2-2-3-3--|
D|---------------------------------------------------------------------------------------------|
A|---------------------------------------------------------------------------------------------|
E|---------------------------------------------------------------------------------------------|
I don't have no problem with you fucking me, but i do have a problem with you not fucking me.

User avatar
TheThirdDay
Posts: 13
Joined: Mon Nov 22, 2010 9:43 pm
Location: Toms River, NJ

Re: Spores

Postby TheThirdDay » Wed Dec 29, 2010 2:51 am

I'm sure everyone and their uncle knows this riff by now, but hey, it's not posted. Lol. This is what I tabbed for Guitar 2 during the bridge.

Code: Select all

   Q E E Q E E   Q E E Q E E   Q E E Q E E   Q E E E T S. E E
e|-------------|-------------|-------------|------------------|
b|-------------|-------------|-------------|-----7-7-7/9--7---|
g|-9---8-8---6-|-6---------9-|-9---8-8---6-|-6--------------9-|
d|-------------|-----9-9-----|-------------|------------------|
a|-------------|-------------|-------------|------------------|
e|-------------|-------------|-------------|------------------|

   Q E E Q E E   Q E E Q E E   Q E E Q E E   Q E E E E E S S
e|-------------|-------------|-------------|-----7-7-7-7-----|
b|-------------|-------------|-------------|-----------------|
g|-9---8-8---6-|-6---------9-|-9---8-8---6-|-6-----------9-9-|
d|-------------|-----9-9-----|-------------|-----------------|
a|-------------|-------------|-------------|-----------------|
e|-------------|-------------|-------------|-----------------|

   Q E E Q E E   Q E E Q E E   Q E E Q E E   Q E E E T S. E E
e|-------------|-------------|-------------|------------------|
b|-------------|-------------|-------------|-----7-7-7/9--7---|
g|-9---8-8---6-|-6---------9-|-9---8-8---6-|-6--------------9-|
d|-------------|-----9-9-----|-------------|------------------|
a|-------------|-------------|-------------|------------------|
e|-------------|-------------|-------------|------------------|

   Q E E Q E E   Q E E Q E E   T S. E E E E E E E   E E E E E E E E
e|-------------|-------------|--------------------|-----------------|
b|-------------|-----------7-|-7/9--7-------------|-----------------|
g|-9---8-8---6-|-6-----------|--------9-8-9-8-6---|-6-------------6-|
d|-------------|-----9-9-----|------------------9-|---9-7-6-6-7-9---|
a|-------------|-------------|--------------------|-----------------|
e|-------------|-------------|--------------------|-----------------|

Q=Quarter; E=Eighth; S=Sixteenth; T=Thirty-Second;
.=dotted (1.x note duration)

When I play this song, I kinda play both guitars together, like this:

Code: Select all

   Q E E Q E E   Q E E Q E E    Q E E  Q E E    Q  E E Q E E
e|-------------|--------------|---------------|--------------|
b|-------------|--------------|---------------|--------------|
g|-9---8-8---6-|-6---------9--|-9-------------|------------9-|
d|-------------|-----9-9------|-----13-13--11-|-11---9-9-----|
a|-7---7-7---7-|-7---7-7---11-|-11--11-11--9--|-9----9-9---7-|
e|-5---5-5---5-|-5---5-5---9--|-9---9--9---7--|-7----7-7---5-|

I'd say that's about as close as you can get. You can play the high e and b strings open if you'd like, but I find it easier to just mute 'em.
Image


Return to “In Defense of the Genre”

Who is online

Users browsing this forum: No registered users and 0 guests