The Futile

Post Reply
User avatar
steveo
Legend
Posts: 89
Joined: Sat Aug 02, 2008 4:46 pm

The Futile

Post by steveo » Sun Aug 03, 2008 1:28 am

Code: Select all

Say Anything
"The Futile"
Tabbed by: Josie Munguia



SHIT!... 
|------------------| 
|------------------| 
|-88---88--8\--888-| 
|-99---99--9\--999-| 
|-99---99--7\--777-| 
|-77---66----------| 

Eat, sleep, fuck and sleep... 
|------------------------------------------------| 
|------------------------------------------------| 
|----88----------88-------888888-8\----------888-| 
|----99----------99-------999999-9\-----9-9--999-| 
|-------------------------777777-7\--7-7-7---777-| 
|-77----7-7-7-66----6-6-6------------------------| 



What do the dead people teach us... 
|-------7-7-7-------7-7-7----------------| 
|-------7-7-7-------7-7-7----------------| 
|-------------------------8-8888-88-and--| 
|-------------------------9-9999-99-so---| 
|-------------------------7-7777-77forth-| 
|-7-7-7-------6-6-6----------------------| 
(slide down the neck for the second ending) 


The futile, the futile.... 
guitar 1 
|-------------------------------| 
|-------------------------------| 
|-4--4-4-4---4--4---------4-4-4-| 
|-4--4-4-4---4--4--7--2---4-4-4-| 
|-x--x-2-2---x--x--7--2---x-x-2-| 
|-2--4-0-0---2--4--5--0---2-4-0-| 

guitar2 (second time around)
|----------------------797979---97-----------------797979-| 
|-797979--------797979--------79--79--------797979--------| 
|--------898989----------------------898989---------------| 
|---------------------------------------------------------| 
|---------------------------------------------------------| 
|---------------------------------------------------------| 






TONIGHT! RAT POISON... 
|------|-----------------------||-----------------------| 
|------|--4444-4444--4444------||-----------------------| 
|-99---|--4444-4444--4444-3333-||----88----88----88---8-| 
|-99---|--xxxx-xxxx--xxxx-xxxx-||----99----99----99---9-| 
|-77---|--2222-xxxx--2222-4444-||-----------------------| 
|----0-|-------4444--0000-2222-||-77----77----77----77--| 





Love, I shall not love... 
guitar 1 
|----------------------------------------| 
|----------------------------------------| 
|-------8-----------8-----------8~--888--| 
|-----9---9-------9---9-----9-------999--| 
|---9-----------9-------9-7---7-----777--| 
|-7---------7-6--------------------------| 
(second time hit the chord for the "8~") 

|-----------------------| 
|---9---7~--------------| 
|-8----------6-8-9-8-6--| 
|-9---9----9------------| 
|-----------------------| 
|-----------------------| 
(chord picked differently for repeats on CD) 



tonight! i am dining alone... 
|-----------------------||-----------------------| 
|--4444-4444--4444------||-----------------------| 
|--4444-4444--4444-3333-||----88----88----88---8-| 
|--xxxx-xxxx--xxxx-xxxx-||----99----99----99---9-| 
|--2222-xxxx--2222-4444-||-----------------------| 
|-------4444--0000-2222-||-77----77----77----77--| 

Image
Oh, I'll be around to pick your pretty heart right off the ground when all this
fucking fashion brings you down.
http://www.purevolume.com/stevearuilioistheman

User avatar
Scott
Legend
Posts: 540
Joined: Sat Aug 02, 2008 11:33 am
Location: Maryland
Contact:

Re: The Futile

Post by Scott » Mon Aug 04, 2008 1:45 pm









Self-inflicted or not, I find myself on the farthest star, foreign to everything like I woke up with a German tongue.

User avatar
What Say You
Posts: 15
Joined: Thu Aug 07, 2008 10:18 pm
Location: Caro, MI
Contact:

Re: The Futile

Post by What Say You » Sun Aug 10, 2008 9:32 am

Image

"Milk Was a Bad Choice"

BradandPitti
Posts: 1
Joined: Tue Oct 14, 2008 8:51 pm
Location: Haiti
Contact:

Hello nice site

Post by BradandPitti » Tue Oct 14, 2008 8:51 pm

very nice site :)

Post Reply