Belt

User avatar
Scott
Legend
Posts: 540
Joined: Sat Aug 02, 2008 11:33 am
Location: Maryland
Contact:

Re: Belt

Postby Scott » Mon Aug 11, 2008 2:02 am

they have their benefits when you use the powertab version.. untill someone tabs it off Jeff's videos we only have the powertab as the text version. even when we tab it out we'll leave the powertab up.. keeping a wealth of resources. i can read the powertab fine but I also have the program and can watch it... it makes more sense after seeing it.
Self-inflicted or not, I find myself on the farthest star, foreign to everything like I woke up with a German tongue.

User avatar
the futile
Posts: 63
Joined: Sun Aug 10, 2008 7:56 pm

Re: Belt

Postby the futile » Mon Aug 11, 2008 2:05 am

Scott wrote:they have their benefits when you use the powertab version.. untill someone tabs it off Jeff's videos we only have the powertab as the text version. even when we tab it out we'll leave the powertab up.. keeping a wealth of resources. i can read the powertab fine but I also have the program and can watch it... it makes more sense after seeing it.


i'll try it with the powertab then
thanks :)
You've got to go with the motion, oh
Can you feel it in your bones?

User avatar
What Say You
Posts: 15
Joined: Thu Aug 07, 2008 10:18 pm
Location: Caro, MI
Contact:

Re: Belt

Postby What Say You » Mon Aug 11, 2008 7:33 am

lol why is he always in a locker room?
Image

"Milk Was a Bad Choice"

User avatar
Scott
Legend
Posts: 540
Joined: Sat Aug 02, 2008 11:33 am
Location: Maryland
Contact:

Re: Belt

Postby Scott » Mon Aug 11, 2008 1:15 pm

What Say You wrote:lol why is he always in a locker room?


it was after a show in pittsburgh at a college. that was their food area backstage, and the quietest place to record him playing songs.
Self-inflicted or not, I find myself on the farthest star, foreign to everything like I woke up with a German tongue.

User avatar
What Say You
Posts: 15
Joined: Thu Aug 07, 2008 10:18 pm
Location: Caro, MI
Contact:

Re: Belt

Postby What Say You » Mon Aug 11, 2008 2:16 pm

Scott wrote:
What Say You wrote:lol why is he always in a locker room?


it was after a show in pittsburgh at a college. that was their food area backstage, and the quietest place to record him playing songs.


Did you record him?
Image

"Milk Was a Bad Choice"

User avatar
Scott
Legend
Posts: 540
Joined: Sat Aug 02, 2008 11:33 am
Location: Maryland
Contact:

Re: Belt

Postby Scott » Wed Aug 13, 2008 8:55 pm

yes
Self-inflicted or not, I find myself on the farthest star, foreign to everything like I woke up with a German tongue.

Jiarb
Posts: 9
Joined: Mon Aug 04, 2008 5:27 pm

Re: Belt

Postby Jiarb » Wed Aug 13, 2008 9:17 pm

Scott, Jeff told you, "I'll only do this if you toMpajme," didn't he?

User avatar
Scott
Legend
Posts: 540
Joined: Sat Aug 02, 2008 11:33 am
Location: Maryland
Contact:

Re: Belt

Postby Scott » Thu Aug 14, 2008 12:26 am

Jiarb wrote:Scott, Jeff told you, "I'll only do this if you toMpajme," didn't he?


haha yah that hapepned
Self-inflicted or not, I find myself on the farthest star, foreign to everything like I woke up with a German tongue.

User avatar
ButThatBelt
Posts: 30
Joined: Wed Aug 13, 2008 4:24 pm
Location: Bethesda, MD
Contact:

Re: Belt

Postby ButThatBelt » Thu Aug 14, 2008 2:33 pm

I am so happy the videos of Jeff playing Belt were posted. This song has been kicking my ass for three years.
Oh, we could blame it on our hands...

is a real boy
Posts: 2
Joined: Fri Aug 08, 2008 4:32 pm

Re: Belt

Postby is a real boy » Wed Sep 24, 2008 11:54 am

Had a go at tabbing what jeff does in the vids, I used the power tab there already was and just changed and added a few things to it

Code: Select all


Standard Tuning.

Intro

E|-------0--|-----------------|-------------------|
B|-------0--|-----------------|-------------------|
G|-------0--|-----x-------x---|-----x------9------|
D|----------|-11--x-9-11--x-9-|-11--x-9-11-9-11-9-|
A|----------|-11--x-9-11--x-9-|-11--x-9-11---11-9-|
E|----------|--9--x-9--9--x-9-|--9--x-9--9----9-9-|

E|-----------------|----------------------|
B|-----------------|----------------------|
G|-----x-------x---|-----x------9-11-(11)-|
D|-11--x-9-11--x-9-|-11--x-9-11-9-11-(11)-|
A|-11--x-9-11--x-9-|-11--x-9-11-----------|
E|--9--x-9--9--x-9-|--9--x-9--9-----------|

E|-----------------|-------------------|---------------|-----------------------|
B|-----------------|-------------------|---------------|-----------------------|
G|-----x-------x---|-----x------9------|---------------|-----------9-11b11.5---|
D|-11--x-9-11--x-9-|-11--x-9-11-9-11-9-|-9--x-9-9--x-9-|-9--x-9-11-9-11b11.5---|
A|-11--x-9-11--x-9-|-11--x-9-11---11-9-|-9--x-9-9--x-9-|-9--x-9-11-------------|
E|--9--x-9--9--x-9-|--9--x-9--9----9-9-|-0--x-0-0--x-0-|-0--x-0--0-------------|

E|-----------------|-------------------|
B|-----------------|-------------------|
G|-----x-------x---|-----x------9------|
D|-11--x-9-11--x-9-|-11--x-9-11-9-11-9-|
A|-11--x-9-11--x-9-|-11--x-9-11---11-9-|
E|--9--x-9--9--x-9-|--9--x-9--9----9-9-|


E|-------------------|----------------------|
B|-------------------|----------------------|
G|-------------------|----------------------|
D|-9-9-11-9-9-9-11-9-|-9-11-11-9-9-11-11-9--|
A|-9-9-11-9-9-9-11-9-|-9-11-11-9-9-11-11-9--|
E|-0-0--0-0-0-0--0-0-|-0--0--0-0-0--0--0-0--|


Verse 1

E|-----------|---9---------|-------------|-8-8-8-8-8-8-|
B|-----------|---9---------|-------------|-9-9-9-9-9-9-|
G|-----------|-------------|-------------|-9-9-9-9-9-9-|
D|-11--------|-------------|--10---------|-------------|
A|-11--------|-------------|--11---------|-------------|
E|--9--------|-------------|---8---------|-------------|

  PM---------|       PM|
E|-------------------|-----------------|-------------------|
B|-------------------|-----------------|-------------------|
G|-11-11-11-11-11--9-|-----4--4--4--4--|-------------------|
D|-11-11-11-11-11--9-|-9---2--2--2--2--|-9-9-9-9---9--9--9-|
A|--9--9--9--9--9--7-|-7---2--2--2--2--|-7-7-7-7---9--9--9-|
E|-------------------|-5---------------|-9-9-9-9---7--7--7-|


E|-------------|---------9----|-------------|-8-8-8-8-8-8--|
B|-------------|---------9----|-------------|-9-9-9-9-9-9--|
G|-------------|--------------|-------------|-9-9-9-9-9-9--|
D|--11~--------|--------------|--10~--------|--------------|
A|--11~--------|--------------|--11~--------|--------------|
E|---9~--------|--------------|---8~--------|--------------|


  PM---------|        PM|
E|--------------------|-----------------|----------------------|
B|--------------------|-----------------|----------------------|
G|-11-11-11-11-11---9-|-----4--4--4--4--|----------------------|
D|-11-11-11-11-11---9-|-9---2--2--2--2--|-7-7-7-7-7-7-7-7--9-9-|
A|--9--9--9--9--9---7-|-7---2--2--2--2--|-9-9-9-9-9-9-9-9--9-9-|
E|--------------------|-5---0--0--0--0--|-7-7-7-7-7-7-7-7--7-7-|


Pre-Chorus
       

E|----------------|--------------|---------------|----------------|
B|----------------|--------------|---------------|----------------|
G|-----11---------|--------------|---------------|----------------|
D|----------------|-----7--------|-----11--------|-----11----9-9--|
A|-7s9----9-------|--------------|-7s9----9------|-7s9----9--9-9--|
E|----------------|-4s5---5------|---------------|-----------7-7--|


E|-------------------|
B|-------------------|
G|----11-----------9-|
D|-----------------9-|
A|7s9----9---7-7---9-|
E|-----------4s5-----|


   Break
 
E|------------------|-----------------|------0------0---|---------x-x-x-x-x--|
B|------------------|---------------- |------0------0---|---------x-x-x-x-x--|
G|------------------|-----------------|--4-4-x--4-4-x---|-4-4-----x-x-x-x-x--|
D|--11---9--11---9--|-11--9---9-9-9---|--2-2----2-2-----|-2-2-----x-x-x-x-x--| Repeat x2
A|--11---9--11---9--|-11--9---7-7-7---|--2-2----2-2-----|-2-2-----x-x-x-x-x--|
E|---9---7---9---7--|-9---7---5-5-5---|-----------------|---------x-x-x-x-x--|

E|--------------------------|
B|-----0-----0-0-----0-0----|
G|-----4-4-4-4-4-4-4-4-4----| end on this second time
D|-----2-2-2-2-2-2-2-2-2----|
A|-----2-2-2-2-2-2-2-2-2----|
E|--------------------------|

E|---------------------------|
B|---------------------------|
G|--9--9--9--9---9--9--9--9--|
D|--11-11-11-11--11-11-11-11-| Repeat x2
A|--10-10-10-10--------------|
E|---------------10-10-10-10-|


  PM---------|         PM|
E|---------------------|---------------|--------------|
B|---------------------|---------------|--------------|
G|-11-11-11-11-11--9---|----4--4--4--4-|--------------|
D|-11-11-11-11-11--9---|-9--2--2--2--2-|-9-9-9--9-9-9-|
A|--9--9--9--9--9--7---|-7--2--2--2--2-|-7-7-7--9-9-9-|
E|---------------------|-5-------------|-9-9-9--7-7-7-|


E|--9-9-9-9-9-9--|------------------------|
B|--9-9-9-9-9-9--|------------------------|
G|---------------|------------------------|
D|---------------|------------------------|
A|---------------|--11-11-11-11-9-7-0-7-9-|
E|---------------|------------------------|

    PM--|       PM|
E|--------------|-----------------|----------------------|
B|--------------|-----------------|----------------------|
G|---11-11----9-|------4--4--4--4-|----------------------|
D|---11-11----9-|-9----2--2--2--2-|-9-9-9-9-9-9-9-9--9-9-|
A|----9--9----7-|-7----2--2--2--2-|-7-7-7-7-7-7-7-7--9-9-|
E|--------------|-5---------------|-9-9-9-9-9-9-9-9--7-7-|


Pre-Chorus

E|-----------------------------------------------------|
B|-10-10-10-10--9--------------------------------------|
G|-9--9--9--9---9--9-9-9-9--8--9-9-9-9--8--9-9-9-8-8-8-|
D|-----------------9-9-9-9--9--9-9-9-9--9--9-9-9-9-9-9-|
A|-----------------------------------------------------|
E|-----------------------------------------------------|

E|-------------------------xxx-|
B|-10-10-10-10--9----------xxx-|
G|-9--9--9--9---9--9-9-9-9-xxx-|
D|-----------------9-9-9-9-xxx-|
A|-------------------------xxx-|
E|-------------------------xxx-|

Chorus

E|-----------------|-----------------|----0--0-0-0--|----0--0-0-0---|
B|-----------------|-----------------|----0--0-0-0--|----0--0-0-0---|
G|-9-9-9-9-9-9-9-9-|-9-9-9-9-9-9-9-9-|--------------|---------------|
D|-9-9-9-9-9-9-9-9-|-9-9-9-9-9-9-9-9-|-9--9--9-9-9--|-9--9--9-9-9---|
A|-7-7-7-7-7-7-7-7-|-9-9-9-9-6-6-6-6-|-7--7--7-7-7--|-7--7--7-7-7---|
E|-----------------|-----------------|-5--5--5-5-5--|-5--5--5-5-5---|


E|-----------------|----------------------|----0--0-0-0--|----0--0-0-0---|
B|-----------------|----------------------|----0--0-0-0--|----0--0-0-0---|
G|-9-9-9-9-9-9-9-9-|-9-9-9-9--9--9--9--9--|--------------|---------------|
D|-9-9-9-9-9-9-9-9-|-9-9-9-9--9--9--9--9--|-9--9--9-9-9--|-9--9--9-9-9---|
A|-7-7-7-7-7-7-7-7-|-9-9-9-9--11-11-11-11-|-9--7--7-7-7--|-7--7--7-7-7---|
E|-----------------|----------------------|-5--5--5-5-5--|-5--5--5-5-5---|


E|------------------------------------------------------|
B|------------------------------------------------------|
G|------------------------------------------------------|
D|--9-9--9-9-9-9-9-9--9-9-9-9-9--9-9-9-9-9-9--9-9-9-9-9-| Repeat X2
A|--9-9--7-7-7-7-7-7--7-7-9-9-9--7-7-7-7-7-7--7-7-9-9-9-|
E|--7-7--9-9-9-9-9-9--7-7-7-7-7--5-5-5-5-5-5--7-7-7-7-7-|

Verse 2

E|----------------------------------|------------------------|
B|----------------------------------|------------------------|
G|----------------------------------|------------------------|
D|----------------------------------|------------------------|
A|----------------------------------|------------------------|
E|--9-9-9-9-9-9-9-9-9-9-9-9-9-9-9-9-|8-8-8-8-8-8-8-8-8-8-8-8-|


E|-------------------|-----------------|---------------------|
B|-------------------|-----------------|---------------------|
G|-------------------|-----------------|---------------------|
D|-------------------|-----------------|--11-11-11-11--9-9-9-|
A|-1s9-9-9-9-9-9-9-9-|-----------------|--11-11-11-11--9-9-9-|
E|-------------------|-5-5-5-5-0-0-0-0-|--9--9--9--9---7-7-7-|


E|--9-9-9-9-9-9--|---------------------------|
B|--9-9-9-9-9-9--|---------------------------|
G|---------------|---------------------------|
D|---------------|---------------------------|
A|---------------|---11-11-11-11--9-7-0-7-9--|
E|---------------|---------------------------|
   
    PM----|     PM-|
E|--------------|-----------------|-------------------|
B|--------------|-----------------|-------------------|
G|---11-11--9---|------4--4--4--4-|-------------------|
D|---11-11--9---|-7----2--2--2--2-|-9-9-9-9---9--9--9-|
A|----9--9--7---|-9----2--2--2--2-|-7-7-7-7---9--9--9-|
E|--------------|-5---------------|-9-9-9-9---7--7--7-|


E|---------------|-------------|-------------|-------------|
B|---9---9---9---|---9---9---9-|---9---9---9-|---9-----9---|
G|--12--12--12---|--12--12--12-|--12--12--12-|--12----12---|
D|---------------|-------------|-------------|-------------|
A|---------------|-------------|-------------|-------------|
E|---------------|-------------|-------------|-------------|

   PM---------|         PM|
E|----------------------|----------------|------------------|
B|----------------------|----------------|------------------|
G|-11-11-11-11-11---9---|-----4--4--4--4-|------------------|
D|-11-11-11-11-11---9---|-9---2--2--2--2-|-9-9-9-9--9--9--9-|
A|--9--9--9--9--9---7---|-7---2--2--2--2-|-7-7-7-7--9--9--9-|
E|----------------------|-5--------------|-9-9-9-9--7--7--7-|


E|----------------------------------------|
B|----------------------------------------|
G|----------------------------------------|
D|-11-11---11-11-11---11-11-11---11-11-11-|
A|-11-11---11-11-11---11-11-11---11-11-11-|
E|--9--9----9--9--9----9--9--9----9--9--9-|


E|--------------------------------------------|
B|--------------------------------------------|
G|--------------------------------------------|
D|-11-11---11-11-11---11-11-11---11-11-11-11--|
A|-11-11---11-11-11---11-11-11---11-11-11-11--|
E|--8--8----8--8--8----8--8--8---8--8--8--8---|

  PM--------------------------------------|
E|-------------------------|-----------------|
B|-------------------------|-----------------|
G|-------------------------|-----------------|
D|-11-11-11-11-11-11-11-11-|-9-9-9-9-9-9-9-9-|
A|--9--9--9--9--9--9--9--9-|-7-7-7-7-7-7-7-7-|
E|-11-11-11-11-11-11-11-11-|-5-5-5-5-5-5-5-5-|
   
  PM------------|
E|----------------------|
B|----------------------|
G|----------------------|
D|-9-9-9-9-9-9-9-9------|
A|-7-7-7-7-7-7-7-7------|
E|-9-9-9-9-9-9-9-9--7-9-|


E|--------------------------------------------------------|
B|-2s-10-10-10-10--9--------------------------------------|
G|-1s-9--9--9--9---9--9-9-9-9--8--9-9-9-9--8--9-9-9-8-8-8-|
D|--------------------9-9-9-9--9--9-9-9-9--9--9-9-9-9-9-9-|
A|--------------------------------------------------------|
E|--------------------------------------------------------|


E|-------------------------xxx-|
B|-10-10-10-10--9----------xxx-|
G|-9--9--9--9---9--9-9-9-9-xxx-|
D|-----------------9-9-9-9-xxx-|
A|-------------------------xxx-|
E|-------------------------xxx-|

Chorus

E|-----------------|-----------------|----0--0-0-0--|----0--0-0-0---|
B|-----------------|-----------------|----0--0-0-0--|----0--0-0-0---|
G|-9-9-9-9-9-9-9-9-|-9-9-9-9-9-9-9-9-|--------------|---------------|
D|-9-9-9-9-9-9-9-9-|-9-9-9-9-9-9-9-9-|-9--9--9-9-9--|-9--9--9-9-9---|
A|-7-7-7-7-7-7-7-7-|-9-9-9-9-6-6-6-6-|-7--7--7-7-7--|-7--7--7-7-7---|
E|-----------------|-----------------|-5--5--5-5-5--|-5--5--5-5-5---|


E|-----------------|----------------------|--0--0-0-0--|----0--0-0-0---|
B|-----------------|----------------------|--0--0-0-0--|----0--0-0-0---|
G|-9-9-9-9-9-9-9-9-|-9-9-9-9--9--9--9--9--|------------|---------------|
D|-9-9-9-9-9-9-9-9-|-9-9-9-9--9--9--9--9--|--9--9-9-9--|-9--9--9-9-9---|
A|-7-7-7-7-7-7-7-7-|-9-9-9-9--11-11-11-11-|--7--7-7-7--|-7--7--7-7-7---|
E|-----------------|----------------------|--5--5-5-5--|-5--5--5-5-5---|


E|------------------------------------------------------|
B|------------------------------------------------------|
G|------------------------------------------------------|
D|--9-9--9-9-9-9-9-9--9-9-9-9-9--9-9-9-9-9-9--9-9-9-9-9-| Repeat x2
A|--9-9--7-7-7-7-7-7--7-7-9-9-9--7-7-7-7-7-7--7-7-9-9-9-|
E|--7-7--9-9-9-9-9-9--7-7-7-7-7--5-5-5-5-5-5--7-7-7-7-7-|


Breakdown

E|-------------|------------------|-------------|-------------------|
B|-------------|------------------|-------------|-------------------|
G|-------------|------------------|-------------|-------------------|
D|---9-----9---|---9-----9------9-|---9-----9---|---9-----9------9--|
A|-------------|-7-----7---9s11---|-------------|-7-----7---9s11----|
E|-9-----5-----|------------------|-9-----5-----|-------------------|

E|-------------|------------------|-------------|-------------------|
B|-------------|------------------|-------------|-------------------|
G|-------------|------------------|-------------|-------------------|
D|---9-----9---|---9-----9------9-|---9-----9---|---9-----9------9--|
A|-------------|-7-----7---9s11---|-------------|-7-----7---9s11----|
E|-9-----5-----|------------------|-9-----5-----|-------------------|


E|-------------------------|
B|-------------------------|
G|-9-11-11-13-13-14-14-13--|
D|-------------------------|
A|-7--9--9-11-11-12-12-11--|
E|-------------------------|


 PM-------------------------------------|
E|-----------------------|----------------------|
B|-----------------------|----------------------|
G|-----------------------|-4-4-------4-4--------|
D|-11-11-------9-9-------|-2-2-------2-2--------|
A|-11-11-------7-7-------|-2-2-------2-2--------|
E|--9--9-------5-5-------|----------------------|

   PM------------------------------------|
E|-----------------------|------------------------|
B|-----------------------|------------------------|
G|-----------------------|-4-4--------4-4---------|
D|-11-11-------9-9-------|-2-2--------2-2---------|
A|-11-11-------7-7-------|-2-2--------2-2---------|
E|--9--9-------5-5-------|------------------------|


E|-----------------------|-----------------------|
B|-----------------------|-----------------------|
G|-----------------------|-4-4--x--x--4--4--x--x-|
D|-11-11--x--x-9-9--x--x-|-2-2--x--x--2--2--x--x-|
A|-11-11--x--x-7-7--x--x-|-2-2--x--x--2--2--x--x-|
E|--9--9--x--x-5-5--x--x-|------x--x--------x--x-|

                             
   PM-------------------------------------------------|
E|-------------------------|----------------------------|
B|-------------------------|----------------------------|
G|-------------------------|--4--4--4--4--4--4--4--4--4-|
D|-11-11-11-11--9--9--9--9-|--2--2--2--2--2--2--2--2--2-|
A|-11-11-11-11--7--7--7--7-|--2--2--2--2--2--2--2--2--2-|
E|--9--9--9--9--5--5--5--5-|----------------------------|

Outro
 
E|--0---0--0--0--0--0--0--0--0--0--0--0-|
B|--0---0--0--0--0--0--0--0--0--0--0--0-|
G|------------------4--4--4--4--4--4--4-|
D|--11-11--9--9--9--2--2--2--2--2--2--2-| Repeat X4
A|--11-11--7--7--7--2--2--2--2--2--2--2-|
E|--9---9--5--5--5----------------------|


E|--0---0--0--0--0--0--0--0--0--0--0--0--0--0--0-|
B|--0---0--0--0--0--0--0--0--0--0--0--0--0--0--0-|
G|------------------------4--4--4--4--4--4--4--4-|
D|--11-11-11-11--9--9--9--2--2--2--2--2--2--2--2-|
A|--11-11-11-11--7--7--7--2--2--2--2--2--2--2--2-|
E|---9--9--9--9--5--5--5-------------------------|

E|--0---0--0--0--0--0--0--0--0--0--0----xxxx|
B|--0---0--0--0--0--0--0--0--0--0--0----xxxx|
G|------------------------4--4--4--4----xxxx|
D|--11-11-11-11--9--9--9--2--2--2--2----xxxx|
A|--11-11-11-11--7--7--7--2--2--2--2----xxxx|
E|---9--9--9--9--5--5--5----------------xxxx|


E|--0--0--0--0--0--0--0--0-|--0--0--0--0--0--0--0--0-|--0--0--0--0--0--0--0-|
B|--0--0--0--0--0--0--0--0-|--0--0--0--0--0--0--0--0-|--0--0--0--0--0--0--0-|
G|-------------------------|--4--4--4--4--4--4--4--4-|----------------------|
D|-11-11-11-11--9--9--9--9-|--2--2--2--2--2--2--2--2-|-11-11-11-11--9--9--9-|
A|-11-11-11-11--7--7--7--7-|--2--2--2--2--2--2--2--2-|-11-11-11-11--7--7--7-|
E|--9--9--9--9--5--5--5--5-|--0--0--0--0--0--0--0--0-|--9--9--9--9--5--5--5-|

E|----------|-------------------|
B|----------|-------------------|
G|-13-------|-----13-13-13-13\--|
D|----------|-------------------|
A|-11-------|-----11-11-11-11\--|
E|----------|-------------------|




Return to “...Is A Real Boy”

Who is online

Users browsing this forum: No registered users and 0 guests