Fired

User avatar
Norgan
Site Admin
Posts: 238
Joined: Wed Aug 26, 2009 10:30 pm
Location: Baltimore, MD
Contact:

Fired

Postby Norgan » Thu Oct 25, 2018 12:07 pm

Code: Select all

Song: Fired
Artist: Say Anything
Tabbed by: Norgan
Tuning: Standard (EADGBe)

Notes:
Max has the B and sometimes even the e string ring out sometimes for effect.
Keep an ear out for it.

Verse:
   E                                     C#m                B
e|------------------|------------------|------------------|------------------|
B|------------------|------------------|------------------|------------------|
G|-1-------4--------|-1-------4--------|-1----------------|-4----------------|
D|-2-------2--------|-2-------2--------|-2----------------|-1----------------|
A|-2-------2--------|-2-------2--------|-4----------------|-2----------------|
E|-0-------0--------|-0-------0--------|------------------|------------------|
...fired today...

   E                                     C#m                B7
e|------------------|------------------|------------------|------------------|
B|------------------|------------------|------------------|------------------|
G|-1-------4--------|-1-------4--------|-1----------------|-2----------------|
D|-2-------2--------|-2-------2--------|-2----------------|-1----------------|
A|-2-------2--------|-2-------2--------|-4----------------|-2----------------|
E|-0-------0--------|-0-------0--------|------------------|------------------|
...my iPhone away...

Outro:
   Esus4              B7                 E
e|------------------|------------------|------------------|------------------|
B|------------------|------------------|------------------|------------------|
G|-4----------------|-2----------------|-1----------------|------------------|
D|-2----------------|-1----------------|-2----------------|------------------|
A|-0----------------|-2----------------|-2----------------|------------------|
E|-0----------------|------------------|-0----------------|------------------|
...I can't be a       bartender  again
Norgan is a real boy!

Return to “Oliver Appropriate”

Who is online

Users browsing this forum: No registered users and 0 guests