Wow I Can Get Sexual Too

User avatar
Scott
Site Admin
Posts: 540
Joined: Sat Aug 02, 2008 11:33 am
Location: Maryland
Contact:

Wow I Can Get Sexual Too

Postby Scott » Sun Aug 03, 2008 11:05 pm

Code: Select all


Say Anything
"Wow I Can Get Sexual Too"
Tabbed By: Whoabot

All Guitars in Standard Turning.

Freeish Time Q=116
  N.C.                                                             C/G
 9/8              4/4
  Gtr I
|--(7)------(7)--|--------(7)-|-(7)--------|------(7)---|-(7)------------||
|----------------|------------|------------|------------|----------------||
|---4-------(4)--|---------4--|-(4)--------|-------4----|-(4)------------||
|--(0)------(0)--|--------(0)-|-(0)--------|------(0)---|-(0)------------||
|----------------|------------|------------|------------|----------------||
|----------------|------------|------------|------------|----------------||
|
| Gtr II
|----------------|------------|------------|------------|----------0-----||
|----------------|------------|------------|------------|----------1-----||
|----------------|------------|------------|------------|----------------||
|----------------|------------|------------|------------|----------------||
|----------------|------------|------------|------------|----------------||
|----------------|------------|------------|------------|----------3-----||


   Verse
    Intarweb Q=114
    Fmaj7            C/G    Fmaj7
    Gtr II
                         7x
||--0--------|-------0---||-0----0----|-0--0--0--0---|
||o-1--------|-------1--o||-1----1----|-1--1--1--1---|
||-----------|-----------||-----------|--------------|
||-----------|-----------||-----------|--------------|
||o----------|----------o||-----------|--------------|
||--1--------|-------3---||-1----1----|-1--1--1--1---|


 horus
  Am                                    Fmaj7             C
  Gtr II
|--0-------0---------0-------0--------|--0-------0---------0-------0--------|
|--1-------1---------1-------1--------|--1-------1---------1-------1--------|
|-(2)-----(2)-------(2)-----(2)-------|-------------------(0)-----(0)-------|
|-------------------------------------|-(3)-----(3)-------------------------|
|--0-------0---------0-------0--------|--------------------3-------3--------|
|-------------------------------------|--1-------1--------------------------|
|
| Gtr III
|-------------------------------------|-------------------------------------|
|-12----------------12----------------|-12----------------12----------------|
|-----12------(12)------12------(12)--|-----12------(12)------12------(12)--|
|-------------------------------------|-------------------------------------|
|-------------------------------------|-------------------------------------|
|-------------------------------------|-------------------------------------|
|
| Gtr IV
|-------------------------------------|-------------------------------------|
|-13------12--------13------12--------|-13------12--------13------15--------|
|-----12-------12-------12-------12---|-----12-------12-------12-------12---|
|-------------------------------------|-------------------------------------|
|-------------------------------------|-------------------------------------|
|-------------------------------------|-------------------------------------|


  Fmaj7             C                   Fmaj7             C/G
|--0-------0---------0-------0--------|--0-------0---------0-------0-----------|
|--1-------1---------1-------1--------|--1-------1---------1-------1-----------|
|-------------------(0)-----(0)-------|-------------------(0)-----(0)----------|
|-(3)-----(3)-------------------------|-(3)-----(3)----------------------------|
|--------------------3-------3--------|----------------------------------------|
|--1-------1--------------------------|--1-------1---------3-------3-----------|
|
|-------------------------------------|----------------------------------------|
|-12----------------12----------------|-12----------------12-------------------|
|-----12------(12)------12------(12)--|-----12------(12)------12------(12)-----|
|-------------------------------------|----------------------------------------|
|-------------------------------------|----------------------------------------|
|-------------------------------------|----------------------------------------|
|
|-------------------------------------|-------------------12-------------------|
|-13------12--------13------12--------|-13------12----------------12-----------|
|-----12-------12-------12-------12---|-----12-------12-------12-------12------|
|-------------------------------------|----------------------------------------|
|-------------------------------------|----------------------------------------|
|-------------------------------------|----------------------------------------|


  Am                                    Fmaj7             C
|--0-------0---------0-------0--------|--0-------0---------0-------0--------|
|--1-------1---------1-------1--------|--1-------1---------1-------1--------|
|-(2)-----(2)-------(2)-----(2)-------|-------------------(0)-----(0)-------|
|-------------------------------------|-(3)-----(3)-------------------------|
|--0-------0---------0-------0--------|--------------------3-------3--------|
|-------------------------------------|--1-------1--------------------------|
|
|-------------------------------------|-------------------------------------|
|-12----------------12----------------|-12----------------12----------------|
|-----12------(12)------12------(12)--|-----12------(12)------12------(12)--|
|-------------------------------------|-------------------------------------|
|-------------------------------------|-------------------------------------|
|-------------------------------------|-------------------------------------|
|
|-------------------------------------|-------------------------------------|
|-13------12--------13------12--------|-13------12--------13------12--------|
|-----12-------12-------12-------12---|-----12-------12-------12-------12---|
|-------------------------------------|-------------------------------------|
|-------------------------------------|-------------------------------------|
|-------------------------------------|-------------------------------------|


  Fmaj7           C/G               C                       C/G
|--0-------0-------0-------0------|--0-------0-------0-------0---------||
|--1-------1-------1-------1------|--1-------1-------1-------1---------||
|-----------------(0)-----(0)-----|-(0)-----(0)-----(0)-----(0)--------||
|-(3)-----(3)---------------------|------------------------------------||
|---------------------------------|--3-------3-------3-----------------||
|--1-------1-------3-------3------|--------------------------3---------||
|
|---------------------------------|------------------------------------||
|-12------------------------------|-12------12------12------12---------||
|---------------------------------|------------------------------------||
|---------------------------------|------------------------------------||
|---------------------------------|------------------------------------||
|---------------------------------|------------------------------------||
|
|---------------------10------10--|------------------------------------||
|-----------------12------12------|-13------13------13------13---------||
|-14--12--14--12------------------|-----12------12------12------12-----||
|---------------------------------|------------------------------------||
|---------------------------------|------------------------------------||
|---------------------------------|------------------------------------||


   Verse
    Fmaj7            C/G    Fmaj7                 C/G
                         4x
||--0--------|-------0---||-0--------|------------0-----|
||o-1--------|-------1--o||-1--------|------------1-----|
||-----------|-----------||----------|------------------|
||-----------|-----------||----------|------------------|
||o----------|----------o||----------|------------------|
||--1--------|-------3---||-1--------|------------3-----|
|
|   Gtr IV
|                        4x
||-----------|-----------||----------|------------------|
||o----------|----------o||----------|------------------|
||-----------|-----------||----------|------------------|
||-----------|-----------||----------|------------------|
||o----------|----------o||----------|------------3--3--|
||-----------|-----------||----------|------3h(5)-------|


  Fmaj7                   C/G    Fmaj7
|--0---------|------------0----|-0--------|
|--1---------|------------1----|-1--------|
|------------|-----------------|----------|
|------------|-----------------|----------|
|------------|-----------------|----------|
|--1---------|------------3----|-1--------|
|
|------------|-----------------|----------|
|------------|-----------------|----------|
|------------|-----------------|----------|
|------------|-----------------|----------|
|-(3)--------|------------3-5--|-3--------|
|------------|------3h(5)------|----------|


        C/G  Fmaj7
|-------0--|-0----0----|-0--0--0--0-----||
|-------1--|-1----1----|-1--1--1--1-----||
|----------|-----------|----------------||
|----------|-----------|----------------||
|----------|-----------|----------------||
|-------3--|-1----1----|-1--1--1--1-----||
|
|----------|-----------|----------------||
|----------|-----------|----------------||
|----------|-----------|----------------||
|----------|-----------|----------------||
|----------|-----------|----------------||
|----------|-----------|----------------||


 Chorus
  Am                                    Fmaj7             C
  Gtr II
|--0-------0---------0-------0--------|--0-------0---------0-------0--------|
|--1-------1---------1-------1--------|--1-------1---------1-------1--------|
|-(2)-----(2)-------(2)-----(2)-------|-------------------(0)-----(0)-------|
|-------------------------------------|-(3)-----(3)-------------------------|
|--0-------0---------0-------0--------|--------------------3-------3--------|
|-------------------------------------|--1-------1--------------------------|
|
| Gtr III
|-------------------------------------|-------------------------------------|
|-12----------------12----------------|-12----------------12----------------|
|-----12------(12)------12------(12)--|-----12------(12)------12------(12)--|
|-------------------------------------|-------------------------------------|
|-------------------------------------|-------------------------------------|
|-------------------------------------|-------------------------------------|
|
| Gtr IV
|-------------------------------------|-------------------------------------|
|-13------12--------13------12--------|-13------12--------13------15--------|
|-----12-------12-------12-------12---|-----12-------12-------12-------12---|
|-------------------------------------|-------------------------------------|
|-------------------------------------|-------------------------------------|
|-------------------------------------|-------------------------------------|


  Fmaj7             C                   Fmaj7             C/G
|--0-------0---------0-------0--------|--0-------0---------0-------0-----------|
|--1-------1---------1-------1--------|--1-------1---------1-------1-----------|
|-------------------(0)-----(0)-------|-------------------(0)-----(0)----------|
|-(3)-----(3)-------------------------|-(3)-----(3)----------------------------|
|--------------------3-------3--------|----------------------------------------|
|--1-------1--------------------------|--1-------1---------3-------3-----------|
|
|-------------------------------------|----------------------------------------|
|-12----------------12----------------|-12----------------12-------------------|
|-----12------(12)------12------(12)--|-----12------(12)------12------(12)-----|
|-------------------------------------|----------------------------------------|
|-------------------------------------|----------------------------------------|
|-------------------------------------|----------------------------------------|
|
|-------------------------------------|-------------------12-------------------|
|-13------12--------13------12--------|-13------12----------------12-----------|
|-----12-------12-------12-------12---|-----12-------12-------12-------12------|
|-------------------------------------|----------------------------------------|
|-------------------------------------|----------------------------------------|
|-------------------------------------|----------------------------------------|


  Am                                    Fmaj7             C
|--0-------0---------0-------0--------|--0-------0---------0-------0--------|
|--1-------1---------1-------1--------|--1-------1---------1-------1--------|
|-(2)-----(2)-------(2)-----(2)-------|-------------------(0)-----(0)-------|
|-------------------------------------|-(3)-----(3)-------------------------|
|--0-------0---------0-------0--------|--------------------3-------3--------|
|-------------------------------------|--1-------1--------------------------|
|
|-------------------------------------|-------------------------------------|
|-12----------------12----------------|-12----------------12----------------|
|-----12------(12)------12------(12)--|-----12------(12)------12------(12)--|
|-------------------------------------|-------------------------------------|
|-------------------------------------|-------------------------------------|
|-------------------------------------|-------------------------------------|
|
|-------------------------------------|-------------------------------------|
|-13------12--------13------12--------|-13------12--------13------12--------|
|-----12-------12-------12-------12---|-----12-------12-------12-------12---|
|-------------------------------------|-------------------------------------|
|-------------------------------------|-------------------------------------|
|-------------------------------------|-------------------------------------|


  Fmaj7           C
|--0-------0-------0-------0------|--0-------0-------0-------0---------||
|--1-------1-------1-------1------|--1-------1-------1-------1---------||
|-----------------(0)-----(0)-----|-(0)-----(0)-----(0)-----(0)--------||
|-(3)-----(3)---------------------|------------------------------------||
|------------------3-------3------|--3-------3-------3-------3---------||
|--1-------1----------------------|------------------------------------||
|
|---------------------------------|------------------------------------||
|-10------------------------------|-12------12------12------12---------||
|---------------------------------|------------------------------------||
|---------------------------------|------------------------------------||
|---------------------------------|------------------------------------||
|---------------------------------|------------------------------------||
|
|---------------------10------10--|------------------------------------||
|-----------------12------12------|-13------13------13------13---------||
|-14--12--14--12------------------|-----12------12------12------12-----||
|---------------------------------|------------------------------------||
|---------------------------------|------------------------------------||
|---------------------------------|------------------------------------||


   Interlude
    (Em)
||----------8---7------|-----------------------|
||o-8---8-----------10-|-8---8---10-8---10-8---|
||----9---9---9---9----|---9---9------9------9-|
||---------------------|-----------------------|
||o--------------------|-----------------------|
||---------------------|-----------------------|
|
|   Gtr V
||--3------------------|-3---------------------|
||o-1------------------|-0---------------------|
||---------------------|-----------------------|
||---------------------|-----------------------|
||o--------------------|-----------------------|
||---------------------|-----------------------|


                                                4x
|---------8---7------|--------------------------||
|-8---8-----------10-|-8---8---10-8---10-8-----o||
|---9---9---9---9----|---9---9------9------9----||
|--------------------|--------------------------||
|--------------------|-------------------------o||
|--------------------|--------------------------||
|
|                                               4x
|-3------------------|-3------------------------||
|-1------------------|-0-----------------------o||
|--------------------|--------------------------||
|--------------------|--------------------------||
|--------------------|-------------------------o||
|--------------------|--------------------------||


 Chorus
  Am                                    Fmaj7             C
|--0-------0---------0-------0--------|--0-------0---------0------|
|--1-------1---------1-------1--------|--1-------1---------1------|
|-(2)-----(2)-------(2)-----(2)-------|-------------------(0)-----|
|-------------------------------------|-(3)-----(3)---------------|
|--0-------0---------0-------0--------|--------------------3------|
|-------------------------------------|--1-------1----------------|
|
| Gtr III
|-------------------------------------|---------------------------|
|-12----------------12----------------|-12----------------12------|
|-----12------(12)------12------(12)--|-----12------(12)----------|
|-------------------------------------|---------------------------|
|-------------------------------------|---------------------------|
|-------------------------------------|---------------------------|
|
| Gtr IV
|-------------------------------------|---------------------------|
|-13------12--------13------12--------|-13------12--------13------|
|-----12-------12-------12-------12---|-----12-------12-----------|
|-------------------------------------|---------------------------|
|-------------------------------------|---------------------------|
|-------------------------------------|---------------------------|


  Fmaj7             C         Fmaj7             C/G
|--0-------0---------0------|--0-------0---------0-------0---------|
|--1-------1---------1------|--1-------1---------1-------1---------|
|-------------------(0)-----|-------------------(0)-----(0)--------|
|-(3)-----(3)---------------|-(3)-----(3)--------------------------|
|--------------------3------|--------------------------------------|
|--1-------1----------------|--1-------1---------3-------3---------|
|
|---------------------------|--------------------------------------|
|-12----------------12------|-12----------------12-----------------|
|-----12------(12)----------|-----12------(12)------12------(12)---|
|---------------------------|--------------------------------------|
|---------------------------|--------------------------------------|
|---------------------------|--------------------------------------|
|
|---------------------------|-------------------12-----------------|
|-13------12--------13------|-13------12----------------12---------|
|-----12-------12-----------|-----12-------12-------12-------12----|
|---------------------------|--------------------------------------|
|---------------------------|--------------------------------------|
|---------------------------|--------------------------------------|


  Am                                    Fmaj7             C
|--0-------0---------0-------0--------|--0-------0---------0------|
|--1-------1---------1-------1--------|--1-------1---------1------|
|-(2)-----(2)-------(2)-----(2)-------|-------------------(0)-----|
|-------------------------------------|-(3)-----(3)---------------|
|--0-------0---------0-------0--------|--------------------3------|
|-------------------------------------|--1-------1----------------|
|
|-------------------------------------|---------------------------|
|-12----------------12----------------|-12----------------12------|
|-----12------(12)------12------(12)--|-----12------(12)----------|
|-------------------------------------|---------------------------|
|-------------------------------------|---------------------------|
|-------------------------------------|---------------------------|
|
|-------------------------------------|---------------------------|
|-13------12--------13------12--------|-13------12--------13------|
|-----12-------12-------12-------12---|-----12-------12-----------|
|-------------------------------------|---------------------------|
|-------------------------------------|---------------------------|
|-------------------------------------|---------------------------|


  Fmaj7           C
|--0-------0-------0-------0------|--0-------0-------0-------0------||
|--1-------1-------1-------1------|--1-------1-------1-------1------||
|-----------------(0)-----(0)-----|-(0)-----(0)-----(0)-----(0)-----||
|-(3)-----(3)---------------------|---------------------------------||
|------------------3-------3------|--3-------3-------3-------3------||
|--1-------1----------------------|---------------------------------||
|
|---------------------------------|---------------------------------||
|-10------------------------------|-12------12------12------12------||
|---------------------------------|---------------------------------||
|---------------------------------|---------------------------------||
|---------------------------------|---------------------------------||
|---------------------------------|---------------------------------||
|
|---------------------10------10--|---------------------------------||
|-----------------12------12------|-13------13------13------13------||
|-14--12--14--12------------------|-----12------12------12------12--||
|---------------------------------|---------------------------------||
|---------------------------------|---------------------------------||
|---------------------------------|---------------------------------||


 Out-Chorus
  Am                                    Fmaj7             C
|--0-------0---------0-------0--------|--0-------0---------0-------0--------|
|--1-------1---------1-------1--------|--1-------1---------1-------1--------|
|-(2)-----(2)-------(2)-----(2)-------|-------------------(0)-----(0)-------|
|-------------------------------------|-(3)-----(3)-------------------------|
|--0-------0---------0-------0--------|--------------------3-------3--------|
|-------------------------------------|--1-------1--------------------------|
|
|-------------------------------------|-------------------------------------|
|-12----------------12----------------|-12----------------12----------------|
|-----12------(12)------12------(12)--|-----12------(12)------12------(12)--|
|-------------------------------------|-------------------------------------|
|-------------------------------------|-------------------------------------|
|-------------------------------------|-------------------------------------|
|
|-------------------------------------|-------------------------------------|
|-13------12--------13------12--------|-13------12--------13------15--------|
|-----12-------12-------12-------12---|-----12-------12-------12-------12---|
|-------------------------------------|-------------------------------------|
|-------------------------------------|-------------------------------------|
|-------------------------------------|-------------------------------------|


  Fmaj7             C                   Fmaj7             C/G
|--0-------0---------0-------0--------|--0-------0---------0-------0-----------|
|--1-------1---------1-------1--------|--1-------1---------1-------1-----------|
|-------------------(0)-----(0)-------|-------------------(0)-----(0)----------|
|-(3)-----(3)-------------------------|-(3)-----(3)----------------------------|
|--------------------3-------3--------|----------------------------------------|
|--1-------1--------------------------|--1-------1---------3-------3-----------|
|
|-------------------------------------|----------------------------------------|
|-12----------------12----------------|-12----------------12-------------------|
|-----12------(12)------12------(12)--|-----12------(12)------12------(12)-----|
|-------------------------------------|----------------------------------------|
|-------------------------------------|----------------------------------------|
|-------------------------------------|----------------------------------------|
|
|-------------------------------------|-------------------12-------------------|
|-13------12--------13------12--------|-13------12----------------12-----------|
|-----12-------12-------12-------12---|-----12-------12-------12-------12------|
|-------------------------------------|----------------------------------------|
|-------------------------------------|----------------------------------------|
|-------------------------------------|----------------------------------------|


  Am                                    Fmaj7             C
|--0-------0---------0-------0--------|--0-------0---------0-------0--------|
|--1-------1---------1-------1--------|--1-------1---------1-------1--------|
|-(2)-----(2)-------(2)-----(2)-------|-------------------(0)-----(0)-------|
|-------------------------------------|-(3)-----(3)-------------------------|
|--0-------0---------0-------0--------|--------------------3-------3--------|
|-------------------------------------|--1-------1--------------------------|
|
|-------------------------------------|-------------------------------------|
|-12----------------12----------------|-12----------------12----------------|
|-----12------(12)------12------(12)--|-----12------(12)------12------(12)--|
|-------------------------------------|-------------------------------------|
|-------------------------------------|-------------------------------------|
|-------------------------------------|-------------------------------------|
|
|-------------------------------------|-------------------------------------|
|-13------12--------13------12--------|-13------12--------13------12--------|
|-----12-------12-------12-------12---|-----12-------12-------12-------12---|
|-------------------------------------|-------------------------------------|
|-------------------------------------|-------------------------------------|
|-------------------------------------|-------------------------------------|


  Fmaj7           C
                                    <
|--0-------0-------0-------0------|-0--(0)------*|
|--1-------1-------1-------1------|-1--(1)------*|
|-----------------(0)-----(0)-----|-0--(0)------*|
|-(3)-----(3)---------------------|-------------*|
|------------------3-------3------|-3--(3)------*|
|--1-------1----------------------|-------------*|
|
|---------------------------------|-------------*|
|-10------------------------------|-------------*|
|---------------------------------|-------------*|
|---------------------------------|-------------*|
|---------------------------------|-------------*|
|---------------------------------|-------------*|
|
|---------------------10------10--|-------------*|
|-----------------12------12------|-------------*|
|-14--12--14--12------------------|-------------*|
|---------------------------------|-------------*|
|---------------------------------|-------------*|
|---------------------------------|-------------*|



Tablature Legend
----------------
 h   - hammer-on
 p   - pull-off
 b   - bend
 pb  - pre-bend
 r   - bend release (if no number after the r, then release immediately)
 /\  - slide into or out of (from/to "nowhere")
 s   - legato slide
 S   - shift slide
&lt;n&gt; - natural harmonic
[n]  - artificial harmonic
n(n) - tapped harmonic
 ~   - vibrato
 tr  - trill
 T   - tap
 TP  - trem. picking
 PM  - palm muting
\n/  - tremolo bar dip; n = amount to dip
 \n  - tremolo bar down
 n/  - tremolo bar up
/n\  - tremolo bar inverted dip
 =   - hold bend; also acts as connecting device for hammers/pulls
 &lt;&gt; - volume swell (louder/softer)
 x   - on rhythm slash represents muted slash
 o   - on rhythm slash represents single note slash

Misc Legend
-----------
 |  - bar
||  - double bar
||o - repeat start
o|| - repeat end
*|  - double bar (ending)
 :  - bar (freetime)
 $  - Segno
 &  - Coda

Self-inflicted or not, I find myself on the farthest star, foreign to everything like I woke up with a German tongue.

User avatar
Scott
Site Admin
Posts: 540
Joined: Sat Aug 02, 2008 11:33 am
Location: Maryland
Contact:

Re: Wow I Can Get Sexual Too

Postby Scott » Sun Aug 03, 2008 11:05 pm

Self-inflicted or not, I find myself on the farthest star, foreign to everything like I woke up with a German tongue.

User avatar
the futile
Posts: 63
Joined: Sun Aug 10, 2008 7:56 pm

Re: Wow I Can Get Sexual Too

Postby the futile » Mon Aug 11, 2008 1:26 am

when max played it at chain reaction
i picked up something like this;

Code: Select all

VERSE:

  e|---------------------------------------|
  B|---------------------------------------|
  G|---------------------------------------|
  D|-5-------------5-----------------------|
  A|-5-------------3-----------------------|
  E|-3-------------1-----------------------|

CHORUS:

  e|------------------|--------------------|
  B|------------------|--------------------|
  G|------------------|--------------------|
  D|-55555555---------|--5555----5555------|
  A|-33333333---------|--3333----5555------|
  E|-33333333---------|--1111----3333------|


and there's palm muting and so on
i'll tab the rest later
You've got to go with the motion, oh
Can you feel it in your bones?

User avatar
singingsimon
Posts: 2
Joined: Sun Mar 14, 2010 7:39 am
Location: Singapore

Wow I Can Get Sexual Too

Postby singingsimon » Sun Mar 14, 2010 8:00 am

I play this song on piano and it works really well.

(I wrote out the chords for you. I just named them something so I wouldn't have to write them out the whole time. Play the three notes that are written and there's your chord)

Chords and the Notes That Make Them Up:
C6 no5 (C 6th without the 5th above C)
E
C
A

C6 sus4 no5 (C 6th sus 4 without the 5th above C)
C
A
F

C (C chord)
G
E
C

D6 sus4 no5 (D 6th sus 4 without the 5th above D)
D
B
G


Verse:
C6
(Play twice before every verse line)

Chorus:
C6 (X4)
C6 sus4 (X2)
C (X2)
C6 sus4 (X2)
C (X2)
C6 sus4 (X2)
D6 sus4 (X2)
Last edited by singingsimon on Sun Sep 19, 2010 11:49 am, edited 1 time in total.

User avatar
Norgan
Posts: 237
Joined: Wed Aug 26, 2009 10:30 pm
Location: Baltimore, MD
Contact:

Re: Wow I Can Get Sexual Too

Postby Norgan » Sun Mar 14, 2010 1:38 pm

I'm having a bit of trouble following this. Think you could write this up on a staff or even a tab?
Norgan is a real boy!


Return to “...Was A Real Boy”

Who is online

Users browsing this forum: No registered users and 0 guests