An Orgy Of Critics

User avatar
What Say You
Posts: 15
Joined: Thu Aug 07, 2008 10:18 pm
Location: Caro, MI
Contact:

An Orgy Of Critics

Postby What Say You » Fri Aug 08, 2008 8:13 am

Does this tab exist anywhere? :?:
Image

"Milk Was a Bad Choice"

User avatar
steveo
Legend
Posts: 89
Joined: Sat Aug 02, 2008 4:46 pm

Re: An Orgy Of Critics

Postby steveo » Fri Aug 08, 2008 2:10 pm

Nah
Image
Oh, I'll be around to pick your pretty heart right off the ground when all this
fucking fashion brings you down.
http://www.purevolume.com/stevearuilioistheman

User avatar
Scott
Legend
Posts: 540
Joined: Sat Aug 02, 2008 11:33 am
Location: Maryland
Contact:

Re: An Orgy Of Critics

Postby Scott » Fri Aug 08, 2008 3:50 pm

Code: Select all

The bass here has to be drop D and it plays an Open D at the beginning and subsequently... then it changes to a slight variation. here's the two parts.

G|---|-----------------|
D|---|-----------------|
A|---|-5---5---5-5-5-5-|
D|-0-|---6---6---------|

This is played throughout the intro on one guitar
e|----|
B|----|
G|--7-|
D|--6-|
A|--5-|
E|----|

This guitar is only played with the bass
e|----|
B|----|
G|--7-|
D|--7-|
A|--5-|
E|----|

Then play the first chord (and then use it in variations)
followed by the second chord with the rhythm
e|----|-----|
B|----|--9--|
G|--7-|--7--|
D|--7-|-----|
A|--5-|-----|
E|----|-----|


this should get everyone started...
Self-inflicted or not, I find myself on the farthest star, foreign to everything like I woke up with a German tongue.

itsafake
Posts: 5
Joined: Sun Aug 10, 2008 12:44 pm

Re: An Orgy Of Critics

Postby itsafake » Thu Aug 14, 2008 8:42 pm

it would be awesome if someone would finish this
think of all the paintings we would be without, if van goh had gone and died face down from loss of blood the night he went and hacked his ear off

Jiarb
Posts: 9
Joined: Mon Aug 04, 2008 5:27 pm

Re: An Orgy Of Critics

Postby Jiarb » Fri Aug 15, 2008 11:20 am

itsafake wrote:it would be awesome if someone would finish this


Hey, no one's holding you back. Go for it.

User avatar
Barry Egan
Posts: 95
Joined: Mon Aug 04, 2008 2:09 pm
Contact:

Re: An Orgy Of Critics

Postby Barry Egan » Thu Aug 21, 2008 1:17 am

Code: Select all

Intro (just repeat a bunch)
E|-----------------------------------------
B|-----------------------------------------
G|--7--------------------------------------
D|--6--------------------------------------
A|--5--------------------------------------
E|-----------------------------------------

Verse
E|-----------------------------------------
B|-----------------------------------------
G|--7-7-7-7-----------7---7----------------
D|--6-6-6-6--6h7p6----6---6----------------
A|--5-5-5-5---------5---5------------------
E|-----------------------------------------

"Fire in the peach pit"
E|-------------------------------------------------------
B|-------------------------------------------------------
G|--7-7-7-7--9-9-9-9--10-10-10-10--12-12-12-12-----------
D|-------------------------------------------------------
A|--5-5-5-5--7-7-7-7--8--8--8--8---10-10-10-10-----------
E|-------------------------------------------------------

"Saw you fake it"
E|------------------------------------------
B|------------------------------------------
G|-----------6-6-6-6--14-14-14-14--9-9-9-9--
D|--7-7-7-7---------------------------------
A|-----------4-4-4-4--12-12-12-12--7-7-7-7--
E|--5-5-5-5---------------------------------

Chorus(bend the A power chord a little bit)
E|---------------------------------------------
B|---------------------------------------------
G|----10---10----10---10-----10---10-----------
D|----10---10----10---10-----10---10--7-7-7-7--
A|--8----8----------------------------7-7-7-7--
E|-------------8----8-----10----10----5-5-5-5--

"I don't know who told you that"
E|----------------------------------------
B|----------------------------------------
G|------7---------------------------------
D|------6--repeat a bunch-----------------
A|--5-5-----------------------------------
E|----------------------------------------

"Believe me" (yeah it's rough)
E|-----------------------------------------
B|-----------------------------------------
G|--10-10-10-10--12-12-12-12--11-11-11-11--
D|-----------------------------------------
A|--8--8--8--8---10-10-10-10--9--9--9--9---
E|-----------------------------------------

"You always remember your first" (second time)
E|----------------------------------------
B|----------------------------------------
G|--7-7-7-7--10-10-10-10--11-11-11-11-----
D|----------------------------------------
A|--5-5-5-5--8--8--8--8---9--9--9--9------
E|----------------------------------------

Solo and end chords are the chorus
Image


Return to “...Is A Real Boy”

Who is online

Users browsing this forum: No registered users and 1 guest