I Will Never Write An Obligatory Song...

Post Reply
User avatar
Barry Egan
Posts: 95
Joined: Mon Aug 04, 2008 2:09 pm
Contact:

I Will Never Write An Obligatory Song...

Post by Barry Egan » Sun Aug 10, 2008 4:07 pm

Code: Select all

Intro
e|--0-0-0--0-----------------|
B|--0-0-0--0-----------------|
G|--2-2-2--1--0-1---0-1---0--|
D|--2-2-2--2------2-----2----|
A|--0-0-0--2-----------------|
E|---------0-----------------|

Verse			Last Time
e|--0--------|--0---------------|
B|--0--------|--0---------------|
G|--2--------|--2---------------|
D|--2--4--6--|--2--4--7---------|
A|--0--4--4--|--0--4--7---------|
E|-----2--2--|-----2--5---------|

"I Want My Baby Back..." (not exact(of course); mess around with it)
e|------------------------------0---2-0--0------------------------|
B|------------------------------2---2----0------------------------|
G|----0-1---0-1----0-1---0-1----0---0----1------------------------|
D|--2-----2------2-----2-----2--2---2----2------------------------|
A|--2------------2--------------0---0----2------------------------|
E|--0------------0-----------------------0------------------------|

"I was Hoping" x2(couldn't figure out end)
e|-----0--0----|
B|--5--0--0----|
G|--4--2--1----|
D|-----2--2----|
A|--4--0--2----|
E|--------0----|

"I got my baby back"
e|------------------------------------------------------|
B|------------------------------------------------------|
G|---------------------12---12--2-2-2-2-----------------|
D|--2-2-2-2-2-2-2-2--2-12-2-12--2-2-2-2--2-2-2-2-2-2-2--|
A|--2-2-2-2-2-2-2-2--2-10-2-10--0-0-0-0--2-2-2-2-2-2-2--|
E|--0-0-0-0-0-0-0-0--0----0--------------0-0-0-0-0-0-0--|

Interlude
e|----------------------------------------------------------------------------------------------------------------------------------
B|----------------------------------------------------------------------------------------------------------------------------------
G|-----------------------0----------------------------------------------------------------------------------------------------------
D|----0-2---0-2------0-2-----0-2---0-2-----0-2--0-2---0-2---------5-5-5-5-5-5-5-5-----------------9-9-9-9-9-9-9--10-10-10-10-10-----
A|---------------4-2-------------------4-2----------------4-2-7-5-5-5-5-5-5-5-5-5--7-5-------5-7--9-9-9-9-9-9-9--10-10-10-10-10-----
E|--0-----0----------------0-----0------------0-----0-------------3-3-3-3-3-3-3-3------7-5-7------7-7-7-7-7-7-7--8--8--8--8--8------
Not everything....just have to type it out. And not perfect(especially "I want my baby back") but good enough for you learn and put your own spin on it.
Image

User avatar
steveo
Legend
Posts: 89
Joined: Sat Aug 02, 2008 4:46 pm

Re: I Will Never Write An Obligatory Song...

Post by steveo » Sun Aug 10, 2008 4:37 pm

Can you fix the interlude?
Image
Oh, I'll be around to pick your pretty heart right off the ground when all this
fucking fashion brings you down.
http://www.purevolume.com/stevearuilioistheman

User avatar
Barry Egan
Posts: 95
Joined: Mon Aug 04, 2008 2:09 pm
Contact:

Re: I Will Never Write An Obligatory Song...

Post by Barry Egan » Sun Aug 10, 2008 5:08 pm

How it looks on the forum, or the actually tab?
Image

User avatar
steveo
Legend
Posts: 89
Joined: Sat Aug 02, 2008 4:46 pm

Re: I Will Never Write An Obligatory Song...

Post by steveo » Sun Aug 10, 2008 6:18 pm

How it looks
Image
Oh, I'll be around to pick your pretty heart right off the ground when all this
fucking fashion brings you down.
http://www.purevolume.com/stevearuilioistheman

User avatar
Barry Egan
Posts: 95
Joined: Mon Aug 04, 2008 2:09 pm
Contact:

Re: I Will Never Write An Obligatory Song...

Post by Barry Egan » Mon Aug 11, 2008 3:20 am

You can just throw it in a text file(note pad, text edit) and it should look fine. That's what I do. I have a 90 or so page text edit file just of tabs. Makes it a lot easier than always looking on the web for them.
Image

Post Reply