Dreaming Of Manhattan

User avatar
the futile
Posts: 63
Joined: Sun Aug 10, 2008 7:56 pm

Dreaming Of Manhattan

Postby the futile » Sun Aug 10, 2008 10:59 pm

Code: Select all

INTRO in full
E|---------------------------------------------------
B|---------------------------------------------------
G|--44-4--3-3h4-44-4-4-3-3h4----4--3-3h4----4--3h4-4-
D|--44----------44-----------22----------22----------
A|--22----------22-----------22----------22----------
E|---------------------------00----------00----------
-
E|--------------------------------------------------
B|--------------------------------------------------
G|--44-4-3-3h4-44-4-4-3-3h4----4-3-3h4--4p3-3-4p3-3-
D|--44---------44-----------22-------------4-----4--
A|--22---------22-----------22----------------------
E|--------------------------00----------------------

E|------------------------------------
B|------------------------------------
G|--4-4-xxxx--------------------------
D|--4-4-xxxx-2-2-xxxx-6~-6-66644-4-xx-     Play thrice
A|--2-2-xxxx-2-2-xxxx-6~-6-66644-4-xx-
E|-----------0-0-xxxx-4~-4-44422-2-xx-

E|-----------------------                 E|-----------------------
B|-----------------------                 B|-----------------------
G|----------------------- Play along with G|--8~9-9-9-9-9-9-8-6~~~-
D|--2-2-2-2-2-2-2-2-4~~~-                 D|-----------------------
A|--2-2-2-2-2-2-2-2-4~~~-                 A|-----------------------
E|--0-0-0-0-0-0-0-0-2~~~-                 E|-----------------------

E|------------------------------------------------
B|------------------------------------------------
G|--44-4-3-3h4-44-4-4-3-3h4----4-3-3h4----4-3h4-4-
D|--44---------44-----------22---------22---------
A|--22---------22-----------22---------22---------
E|--------------------------00---------00---------


VERSE (and in my dreams...) (and my wings can carry me...)
E|--------------------------------------------------
B|--------------------------------------------------
G|-----4--3-3h4----4-4-3-3h4----4--3-3h4----4-3h4-4-
D|--------------------------------------------------
A|--22----------22----------------------------------
E|---------------------------00----------00---------

(and the smell of its decay...) (hold me in your arms...)
E|-----------------------------------------------------
B|-----------------------------------------------------
G|-----------------------------------------------------
D|--6-6-6-6-6-6-6-6-4-4-4-4-4-4-4-4-2-2-2-2-2-2-2-2-4~~
A|--6-6-6-6-6-6-6-6-4-4-4-4-4-4-4-4-2-2-2-2-2-2-2-2-4~~
E|--4-4-4-4-4-4-4-4-2-2-2-2-2-2-2-2-0-0-0-0-0-0-0-0-2~~


PRECHORUS (oh my angel...) (can you see it's not the same)...
E|--------------------------------------------------------
B|--------------------------------------------------------
G|--------------------------------------------------------
D|--66-----66-----44-----44-----22-----22-----44-44-44-44-
A|--66-xx-x66-xx-x44-xx-x44-xx-x22-xx-x22-xx-x44-44-44-44-
E|--44-xx x44-xx-x22-xx-x22-xx-x00-xx-x00-xx-x22-22-22-22-

E|----------------------------------------
B|----------------------------------------
G|----------------------------------------
D|--66-----66-----44-----44-----2-2-2~~-4-
A|--66-xx-x66-xx-x44-xx-x44-xx-x2-2-2~~-4-
E|--44-xx x44-xx-x22-xx-x22-xx-x0-0-0~~-2-


CHORUS (no more, no less...)
E|------------------------------------
B|------------------------------------
G|--4-4-xxxx--------------------------
D|--4-4-xxxx-2-2-xxxx-6~-6-66644-4-xx-     Play thrice
A|--2-2-xxxx-2-2-xxxx-6~-6-66644-4-xx-
E|-----------0-0-xxxx-4~-4-44422-2-xx-

E|-----------------------         E|-----------------------
B|-----------------------         B|-----------------------
G|-----------------------   Play along with...  G|--8~9-9-9-9-9-9-8-6~~~-
D|--2-2-2-2-2-2-2-2-4~~~-         D|-----------------------
A|--2-2-2-2-2-2-2-2-4~~~-         A|-----------------------
E|--0-0-0-0-0-0-0-0-2~~~-         E|-----------------------


BRIDGE/SOLO
E|----------------------------------------
B|----------------------------------------
G|--4~~6~4/8--4~~6p4/8--6-4-8--8~~9p8p6p4-
D|----------------------------------------    Repeat...
A|----------------------------------------
E|----------------------------------------


CHORUS (no more, no less...)
E|------------------------------------
B|------------------------------------
G|--4-4-xxxx--------------------------
D|--4-4-xxxx-2-2-xxxx-6~-6-66644-4-xx-     Play thrice
A|--2-2-xxxx-2-2-xxxx-6~-6-66644-4-xx-
E|-----------0-0-xxxx-4~-4-44422-2-xx-

E|-----------------------         E|-----------------------
B|-----------------------         B|-----------------------
G|-----------------------   Play along with...  G|--8~9-9-9-9-9-9-8-6~~~-
D|--2-2-2-2-2-2-2-2-4~~~-         D|-----------------------
A|--2-2-2-2-2-2-2-2-4~~~-         A|-----------------------
E|--0-0-0-0-0-0-0-0-2~~~-         E|-----------------------


OUTRO
E|---------------------------------------------------
B|---------------------------------------------------
G|--44-4--3-3h4-44-4-4-3-3h4----4--3-3h4----4--3h4-4-
D|--44----------44-----------22----------22----------
A|--22----------22-----------22----------22----------
E|---------------------------00----------00----------
-
E|----------------------------------------------------
B|----------------------------------------------------
G|--44-4-3-3h4-44-4-4-3-3h4----4-3-3h4--4p3-3-4p3-3-4~
D|--44---------44-----------22-------------4-----4--4~
A|--22---------22-----------22----------------------2~
E|--------------------------00------------------------
Last edited by the futile on Mon Aug 11, 2008 1:11 am, edited 1 time in total.
You've got to go with the motion, oh
Can you feel it in your bones?

luke
Posts: 11
Joined: Sun Aug 10, 2008 10:59 pm

Re: Dreaming Of Manhattan

Postby luke » Sun Aug 10, 2008 11:05 pm

this is the one jv song i couldn't figure out! I got started on it and the intro came out something like this:

Code: Select all

E|-----------------
B|-----------------
G|----4--3/4----
D|--44x--x-x-----
A|--222--1/2----
E|-----------------

And a bunch of variations on that, but your way sounds more correct and I couldn't get past the chorus part.
I'll put up "She Got Away" so we have a respectable amount of JV tabs.

stalk_on
Posts: 4
Joined: Mon May 17, 2010 2:15 pm

Re: Dreaming Of Manhattan

Postby stalk_on » Mon May 17, 2010 2:32 pm

This, along with others posted by "the futile," was tabbed by me about 5 years ago, for my now-defunct SA site, "Stalk On."

Conversely, Steve_O gave credit on my Signal the Rifleman tab. Appreciated.

User avatar
steveo
Legend
Posts: 89
Joined: Sat Aug 02, 2008 4:46 pm

Re: Dreaming Of Manhattan

Postby steveo » Tue May 25, 2010 10:05 pm

stalk_on wrote:This, along with others posted by "the futile," was tabbed by me about 5 years ago, for my now-defunct SA site, "Stalk On."

Conversely, Steve_O gave credit on my Signal the Rifleman tab. Appreciated.



cause your the man
Image
Oh, I'll be around to pick your pretty heart right off the ground when all this
fucking fashion brings you down.
http://www.purevolume.com/stevearuilioistheman


Return to “Junior Varsity”

Who is online

Users browsing this forum: No registered users and 0 guests