Have At Thee!

James
Posts: 13
Joined: Tue Aug 05, 2008 6:29 am

Have At Thee!

Postby James » Tue Aug 12, 2008 5:37 am

Thanks to The Futile for reminding me to put this up

Code: Select all


Drop D tuning

Intro (light) & Chorus (distortion)

e ------------------------------------------------------------- 
B -------------------------------------------------------------
G ------------------4444444-666-999-4444444-666----
D --000--777--000---4444444-666-999-4444444-666---
A --000--777--000---2222222-444-777-2222222-444---
E --000--777--000-------------------------------------------



Verse

e-------------------------------------
B-------------------------------------
G-------------------------------------
D---44--77--44--77--00------------
A---44--77--44--77--00------------
E---44--77--44--77--00------------



Little thingy that leads into chorus (Blow her love away)


e---------------------------------------------------------------------
B----------------------------------------------------------------------
G----------------------------------------------------------------------
D--44-------33-----22-------11-------000000000000--------------
A--44--02---33--02-22--02---11--20---000000000000--------------
E--44-------33-----22-------11-------000000000000---------------


NoSmokingBandit
Posts: 5
Joined: Fri Aug 15, 2008 10:32 pm

Re: Have At Thee!

Postby NoSmokingBandit » Fri Aug 15, 2008 10:36 pm

Theres a lead part on the 2nd half of the last line in each verse that goes like this:

Code: Select all

e|--------------------------------
B|-5-----5-----5-----5-----2h3p2--
G|---2-4---4-2---2-4---4-2--------
D|--------------------------------
A|--------------------------------
E|--------------------------------

The 2nd verse has fills on every line but the last one is the same as the first verse. I may tab out the 2nd verse fills someday soon.

User avatar
TheThirdDay
Posts: 13
Joined: Mon Nov 22, 2010 9:43 pm
Location: Toms River, NJ

Re: Have At Thee!

Postby TheThirdDay » Tue Nov 23, 2010 12:21 am

The little riff after the "blade to my skin" line goes something like this:

Code: Select all

g|---------------------------------9b10r9-
d|----------------------7-7-7-9-11--------
a|-7-7-7-9-9-9-11-11-11-------------------


The "Blow her love away" part goes more like this:

Code: Select all

e|-----------------------------------------
b|---------------------------------5-5-5-5-
g|-----------------------------------------
d|-4-4-----3-3-----2-2-----1-1-----0-0-0-0-
a|-4-4-----3-3-----2-2-----1-1-2-0-0-0-0-0-
d|-4-4-6-7-3-3-6-7-2-2-6-7-1-1-----0-0-0-0-...
Image


Return to “In Defense of the Genre”

Who is online

Users browsing this forum: No registered users and 0 guests