Try to Remember, Forget

luke
Posts: 11
Joined: Sun Aug 10, 2008 10:59 pm

Try to Remember, Forget

Postby luke » Sun Aug 17, 2008 12:56 am

Try to Remember, Forget

Code: Select all

Intro
E|--------------------------
B|---------------------------
G|-----7--7~---7--7~---7\x--
D|--xxx5--5~-xx5--5~-xx5\0--
A|--xxx3--3~-xx3--3~-xx-----
E|--xxx3-33~-xx3-33~-xx-----

Riff 1 ("It is my birthday"):
E|-------------------------
B|-------------------------
G|-------7-4~------7-4-----
D|--5h7p5-----5h7p5---7-5--
A|-------------------------
E|-------------------------

Riff 2 ("Light up a new joint"):
E|-----------------------
B|-----------------------
G|-------77-4~--4---4-4--
D|--5h7p5------5-5/7-7---
A|-----------------------
E|-----------------------

Riff 3 ("I could read a book..."):
Guitar 1:
E|-------
B|-------
G|-------
D|--555--
A|--x55--
E|--333--
Guitar 2:
E|--5~-7~-5~-7~-5~-7~------
B|-----------------------------
G|-----------------------------
D|-----------------------------
A|-----------------------------
E|-----------------------------

Chorus ("Heed my breath at burnin' wax"):
E|------------
B|------------
G|-----7--7~--
D|--xxx5--5~--
A|--xxx3--3~--
E|--xxx3-33~--

Second Verse: the bass plays riff 2, guitar 1 plays G and guitar 2 plays riff 2

for the pre-chorus ("Smoked away my pride"), guitar 1 plays riff 3, and guitar 2 plays this:
Riff 3a
E|-----------------
B|-----------------
G|--444-22222--
D|--000-22222--
A|--xxx-00000--
E|--333-00000--

Chorus is the same as the first ("Crawl my way out of this grave")

Bridge ("Radio's playin' the same old songs..."):
Guitar 1
E|-------------------------------
B|-------------------------------
G|----77--77--77--44-------------
D|--55--55--55--55--55-5h7-5h7~--
A|-------------------------------
E|-------------------------------
Lots of variations
Guitar 2:
E|----------
B|----------
G|--7h9p7~--
D|----------
A|----------
E|----------
Oft. repeated lead
E|------------
B|------------
G|--77777777--
D|--55555555--
A|--55555555--
E|------------
PM  ........
Last time (not exact strums, gradually ease up on mute)

Solo:
E|--------10-7-7-7--------------1010-7-7h10-7h10-------------------------------------
B|--8h10p8----8-8-10-1010-8h10p8-----------------------------------------------------
G|----------------------------------------------------4-4-4-4----------77-4-4h7-4h7--
D|-----------------------------------------------5h7p5---5-5-7-77-5h7p5--------------
A|-----------------------------------------------------------------------------------
E|-----------------------------------------------------------------------------------
Then play Riff 3a

End with:
E|--------------------
B|--------------------
G|--7-7-7-7--9999999--
D|---5-5-5-5-xxxxxxx--
A|-----------7777777--
E|--------------------

Final Verse ("And in no time we'll be..."):
E|--------------------------------------
B|--------------------------------------
G|--4444444444444444-99999999\77777777--
D|--5555555555555555-xxxxxxxx-xxxxxxxx--
A|--5555555555555555-77777777\55555555--
E|--3333333333333333--------------------
Variations in strumming
Then riff 3a ("From our Huggies to Armani and it all seems so rehearsed!")

End with the chorus with this change at the second "heed my breath":
E|-------------33~--
B|-------------33~--
G|--4-4-4-4-4--44~--
D|---5-5-5-5-5-55~--
A|-------------55~--
E|-------------33~--
Then riff 1 for one last "it is my birthday" and you're done.
Last edited by luke on Mon Dec 15, 2008 11:35 pm, edited 4 times in total.

uiop21
Posts: 16
Joined: Fri Aug 22, 2008 4:15 am

Re: Try to Remember, Forget

Postby uiop21 » Mon Sep 01, 2008 8:53 pm

Sadly, a good amount of this is incorrect. The verse is right, but the rest sounds wrong. Sorry but I'd give it 2.5 stars

User avatar
Barry Egan
Posts: 95
Joined: Mon Aug 04, 2008 2:09 pm
Contact:

Re: Try to Remember, Forget

Postby Barry Egan » Tue Sep 02, 2008 2:35 am

I'll hook you guys up with how I play it...it's pretty different. I wouldn't say more correct but different.
Image

User avatar
Barry Egan
Posts: 95
Joined: Mon Aug 04, 2008 2:09 pm
Contact:

Re: Try to Remember, Forget

Postby Barry Egan » Tue Sep 02, 2008 9:07 pm

Code: Select all

Verse(the two bass notes aren't usually added but I always play them)                repeat
E|-----------------------------------
B|-----------------------------------
G|--------7-4---------7-4------------
D|--5-7-5-5-5---5-7-5-5-5-7-5--------
A|--3-3-3-3-3---3-3-3-3-3-3-3--------
E|--3-3-3-3-3---3-3-3-3-3-3-3--------

"Light up a new joint"        repeat
E|------------------------------------
B|------------------------------------
G|--------7-4---------------7-4-------
D|--5-7-5-5-5-7-5-7---5-7-5-5-5-7-5---
A|--3-3-3-3-3-5-5-5---3-3-3-3-3-3-3---
E|--3-3-3-3-3-3-3-3---3-3-3-3-3-3-3---

I'll have the pre-chorus part when I get an high E string haha

"Heave my breath at burning wax
E|---------------------------------------
B|---------------------------------------
G|--4-7---4-7---7/---7-7-7-7-7--4-4-4-4--
D|--5-5---5-5---5/---5-5-5-5-5--5-5-5-5--
A|--3-3---3-3---3/---3-3-3-3-3--3-3-3-3--
E|--3-3---3-3---3/---3-3-3-3-3--3-3-3-3--


I'll have the rest in the coming days.
Image

luke
Posts: 11
Joined: Sun Aug 10, 2008 10:59 pm

Re: Try to Remember, Forget

Postby luke » Fri Sep 05, 2008 5:03 pm

yeah you're probably right. i did this at like three in the morning cuz i figured out the verse riff spontaneously, but I played it the next morning and was like, "what was I thinking?". I do think that the bridge and the solo are right, though (the part of the solo that's just the verse but an octave higher), and I'm thinking about overhauling the tab. I've been busy with a For The Silent tab and I just can't get the bridge.


Return to “Menora/Majora”

Who is online

Users browsing this forum: No registered users and 0 guests