The Writhing South

User avatar
steveo
Legend
Posts: 89
Joined: Sat Aug 02, 2008 4:46 pm

The Writhing South

Postby steveo » Sat Aug 02, 2008 5:22 pm

Code: Select all

Say Anything
"The Writhing South"
Tab by: donnknotts@gmail.com
Corrections and Additions by: Scott Rome

Intro (Played Twice, Second Time W/Distortion
e|----------------------------------------------------------------------2--2--|           
B|----------------------------------------------------------------------2--2--|
G|------------------------------------------------------------------4---2--2--|
D|xx-11-11-11-11-11-11-11--xx-7-7-7-7-7-7-7-xx-7-7-7-7-7-7-7-xx-4-4-4---4--4--|
A|xx-9--11-9---7--7--7--7--xx-5-7-5-4-4-4-4-xx-5-7-5-4-4-4-4-xx-2-2-2---4--4--|
E|--------------------------------------------------------------------2-2--2--|
-
e|----------------------------------------------------------------------2--2--|           
B|----------------------------------------------------------------------2--2--|
G|------------------------------------------------------------------4---2--2--|
D|xx-11-11-11-11-11-11-11--xx-7-7-7-7-7-7-7-xx-7-7-7-7-7-7-7-xx-4-4-4---4--4--|
A|xx-9--11-9---7--7--7--7--xx-5-7-5-4-4-4-4-xx-5-7-5-4-4-4-4-xx-2-2-2---4--4--|
E|--------------------------------------------------------------------2-2--2--|
Verse
"Searching for blood in the..."
e|----------------------------------------------|
B|----------------------------------------------|
G|-----------------------2----------------------|
D|---7------7---7-------------6--6h7------------|
A|-5---5--4---4---4---4----/7--7-----7----------|
E|------------------2---------------------------|

"I've got this..."
e|--------------------------------------------|
B|--------------------------------------------|
G|-7-7-7-6-6--0-----------9--9-9-9------------|
D|-7-7-7-7-7--0----4--4x--9--9-9-9------------|
A|-5-5-5-4-4--0----4--4x--7--7-7-7------------|
E|------------0----2--2x----------------------|


 "Hey......"               Last chord beginning. later uses the next chord at end
E|--------------------------------------------|----|---|
B|--------------------------------------------|----|---|
G|--7-7--7-7-7--7-9-9--9-9-9--6-6-6-6-9-9-9-9-|-11-|---|
D|--------------------------------------------|----|-4-|
A|--5-5--5-5-5--5-7-7--7-7-7--4-4-4-4-7-7-7-7-|--9-|-4-|
E|--------------------------------------------|----|-2-|

"Across the room..."
E|---------------------------------------------------------------|
B|---------------------------------------------------------------|
G|--7--7-----------7--7-----------7--7-----------9-9-9-----------|
D|--7--7---7-7-7---7--7---7-7-7---7--7---7-7-7---9-9-9---7-7-7-7-|
A|--5--5---7-7-7---5--5---7-7-7---5--5---7-7-7---7-7-7---7-7-7-7-|
E|--5--5---5-5-5---5--5---5-5-5---5--5---5-5-5-----------5-5-5-5-|

Bass repeats intro...
Guitar plays some natural harmonics, real easy to figure out, and once again I am lazy

Breakdown (the pieces)
E|-----------------------------------------|
B|-----------------------------------------|
G|-----------------4-------6-6-6-6-6-4h5-6-|
D|-------------------7-6-4-----------------|
A|--5--5-5-5-5-4-2-------------------------|
E|-----------------------------------------|

E|------------------|
B|------------------| repeat a few times
G|------------------|
D|------------------|
A|--5--5-5-5-5-4-2--|
E|------------------|

E|------------------------------------------------|
B|----------------------| repeat this section alot|
G|---------------------------6-----6------6-------|
D|------------------7-6-4-4----4-4----4-4---------|
A|--5--5-5-5-5-4-2--------------------------------|
E|------------------------------------------------|

E|--------0----------|
B|--------0----------|
G|--------0----------|  repeat a bunch. then just repeat the chords fast
D|-3-4-4-------------|
A|-3-4-4-------------|
E|-1-2-2-------------|

E|-------------------|
B|-------------------|
G|--------3-3-3------| 
D|-3-4-4--3-3-3------|
A|-3-4-4--1-1-1------|
E|-1-2-2-------------|
Image
Oh, I'll be around to pick your pretty heart right off the ground when all this
fucking fashion brings you down.
http://www.purevolume.com/stevearuilioistheman

User avatar
Scott
Legend
Posts: 540
Joined: Sat Aug 02, 2008 11:33 am
Location: Maryland
Contact:

Re: The Writhing South

Postby Scott » Mon Aug 04, 2008 1:38 pm

Self-inflicted or not, I find myself on the farthest star, foreign to everything like I woke up with a German tongue.

Aulfet
Posts: 2
Joined: Mon Aug 18, 2008 1:46 pm

Re: The Writhing South

Postby Aulfet » Mon Aug 18, 2008 3:20 pm

Does anyone want a video of sections of this song? Or maybe just a full blown cover?
Just ask me and I might be able to get some up today.

User avatar
steveo
Legend
Posts: 89
Joined: Sat Aug 02, 2008 4:46 pm

Re: The Writhing South

Postby steveo » Mon Aug 18, 2008 3:23 pm

Aulfet wrote:Does anyone want a video of sections of this song? Or maybe just a full blown cover?
Just ask me and I might be able to get some up today.



Go for it
Image
Oh, I'll be around to pick your pretty heart right off the ground when all this
fucking fashion brings you down.
http://www.purevolume.com/stevearuilioistheman

Aulfet
Posts: 2
Joined: Mon Aug 18, 2008 1:46 pm

Re: The Writhing South

Postby Aulfet » Mon Aug 18, 2008 10:02 pm

I just recorded the intro. A little rough due to my new strings which lay like 10 inches from my fretboard. I'll post the rest tomorrow, perhaps a cleaner version later.


http://www.youtube.com/watch?v=yCQWrAyZ9oo

User avatar
david_style6
Posts: 112
Joined: Sat Feb 13, 2010 5:55 pm
Location: San Antonio, TX

Re: The Writhing South

Postby david_style6 » Tue Sep 28, 2010 11:06 pm

could someone do some videos for this song? i think im getting it wrong...
I miss you, girl. You're all that makes me true.


Return to “...Is A Real Boy”

Who is online

Users browsing this forum: No registered users and 0 guests