Joel on The Other Planets

For songs that are not in any of the above categories.
Post Reply
User avatar
Barry Egan
Posts: 95
Joined: Mon Aug 04, 2008 2:09 pm
Contact:

Joel on The Other Planets

Post by Barry Egan » Sun Sep 14, 2008 10:58 pm

Code: Select all

Intro/Verse(mess with these chords. you can figure out the picking) 
e|--------------------(0)-----------------------------------------------| 
B|--------------------(0)------------------------------------------------| 
G|---------x3--9-------6---------------------------------------------------| 
D|--6--6h7-----9---6---7----------------------------------------------------| 
A|--7--7-7---------7---7----------------------------------------------------| 
E|--0--5-5-----9---4---5-----------------------------------------------------| 

Chorus 
e|-(0)--0---------------(0)---------------------------------------------------| 
B|-(0)--0--x3-----------(0)-----------------------------------------------------| 
G|--6---1--------9-------6------------------------------------------------------| 
D|--7---2--------9---6---7-------------------------------------------------------| 
A|--7---2------------7---7-------------------------------------------------------| 
E|--5---0--------9---4---5--------------------------------------------------------| 

Bridge("going down" 
e|----------------------------------------------------------------------| 
B|----------------------------------------------------------------------| 
G|--(a bunch of times)---8-----------------------------------------------| 
D|---6---6---------------9---------------------------------------------| 
A|-----------------------9---------------------------------------------| 
E|-5---5-----------------7----------------------------------------------| 
Image

Post Reply